Song: Girl Or A Guy
Band: Blinded By Reason
Album Unknown

Intro 

G:-----------------------------------------------------------------
D:----------------------------------------------------------------- 
A:-3~-------------------------------------------------------------- 
E:-----------------3~-------------1~--------------3~---------------

Verse

G:-----------------------------------------------------------------
D:-----------------------------------------------------------------
A:-3-3-3-3-3-3-3-3-------------------------------------------------
E:-----------------3-3-3-3-3-3-3-3-1-1-1-1-1-1-1-1-3-3-3-3-3-3-3-3-

Chorus 1 

G:-----------------------------------------------------------------
D:-----------------------------------------------------------------
A:-------------------------------------------------3~--------------
E:-1~--------------3~--------------5~------------------------------

G:-----------------------------------------------------------------
D:-----------------------------------------------------5-----5---5-
A:-----3-----3---3-----5-----5---5-----7-----7---7-3-3---3-3---3---
E:-1-1---1-1---1---3-3---3-3---3---5-5---5-5---5-------------------

Chorus 2

G:-----------------------------------------------------------------
D:-----------------------------------------------------------------
A:-------------------------------------------------3~--------------
E:-1~--------------3~--------------5~------------------------------

G:-----------------------------------------------------------------
D:-----------------------------------------------------5-----5---5-
A:-----3-----3---3-----5-----5---5-----7-----7---7-3-3---3-3---3---
E:-1-1---1-1---1---3-3---3-3---3---5-5---5-5---5-------------------

G:-----------------------------------------------------------------
D:-----------------------------------------------------------------
A:-------------------------------------------------3-3-3-3-3-3-3-0-
E:-1-1-1-1-1-1-1-1-3-3-3-3-3-3-3-3-5-5-5-5-5-5-5-0-----------------

End

G:-----------------
D:-----------------
A:-3~--------------
E:-----------------


Verse 1

Thursday he didn't know what to do
He drunk a few and then he kissed him
He kissed him, and now his girlfriend knows
That it really shows now he's lost her

Verse 2

The other day, he saw her
He didn't know what to say cause she thinks he's gay
He's gay, now it stays this way
Till he sees the day when he finds her

Chorus

Now he's alone 
No ones home
Girl or Guy
He never lied just girl or guy

Verse 3

Sorry that's what he said 
Just to get her back to light the spark
He's in the dark in the dark
He's sorry, sorry

Chorus 2

Now he's alone 
No ones home
Girl or Guy
He never lied just girl or guy
Girl or guy
Girl or guy 
Girl or guy


Текст, аккорды и табулатура для песни "Blinded By Reason - Girl Or A Guy", исполняет "Misc Unsigned Bands".
Используемые в песне аккорды можно найти в разделе Как брать аккорды. Аккорды для шестиструнной гитары. Другие песни можно найти на нашем сайте, воспользовавшись алфавитным указателем вверху страницы.


 
Ошибка в тексте? Выделите ошибку и нажмите Ctrl+Enter