Band - Better Then 9
Song -The Taste Of Victory
CD-Testing My Strength
Tabbed By Will Zulauf and  Better Then 9
www.geocities.com/betterthen9

Hey This Is our second single of our first album and this is diffently right
since I wrote the song so here it goes. 

Intro 
E-------------------------------------------------------
B-8-7------8-7---8-7------------------------------------
G----7-9-7----7-9---7-9-7-------------------------------
D---------9--------------9-7-9-5------------------------

Verse 
E|-----------------|-----------------|-----------------|-----------------|
B|-----------------|-----------------|-----------------|-999-79----------|
G|-9-8-9-9-6-6>8-8-|-9---9-999-9>11--|-9-8-9-9-6-6>6-8-|-666-66-9-9999>11|
D|-9-9-9-9-7-7>8-9-|-9---7-777-7>9---|-9-9-9-9-7-7>7-9-|-666-66-7-7777>9-|
A|-7-7-7-7---------|-7---7-777-7>9---|-7-7-7-7---------|-----------------|
E|-----------------|-----------------|-----------------|-----------------|


Chorus
1st time
e|---------------------------------------------------------------------------|
B|---------------------------------------------------------------------------|
G|-7-7-77--------4-4-44------------------------------------------------------|
D|-7-7-77-55-5-5-4-4-44-5-5-55/7-7-------------------------------------------|
A|-5-5-55-55-5-5-2-2-22-5-5-55/7-7-------------------------------------------|
E|--------33-3-3--------3-3-33/5-5-------------------------------------------|

  2nd time
e|---------------------------------------------------------------------------|
B|---------------------------------------------------------------------------|
G|-7-7-77--------4-4-44------------------------------------------------------|
D|-7-7-77-55-5-5-4-4-44-7-7--------------------------------------------------|
A|-5-5-55-55-5-5-2-2-22-7-7--------------------------------------------------|
E|--------33-3-3--------5-5--------------------------------------------------|

Solo
e----------------------------------
b----------------------------------
g----------------------------------
d--------------6h7-6h7-------------
a--5h7-4h5-2h4---------5h7-4h5-2h4-

e------------------------------------------------
b------------------------------------------------
g---------------------------------------7--2-----
d--6h7-6h7-------------6h7-6h7----------7--2-----
a----------5h7-4h5-2h4---------5h7-4h5--5--0-----



e--------------------------------------------
b--------------------------------------------
g--------------------------------------------
d---222222222222222222722222222222222222227-2
a---222222222222222222722222222222222222227-2
e---000000000000000000500000000000000000005-0


Outro

E-------------------------------------------------------
B-8-7------8-7---8-7------------------------------------
G----7-9-7----7-9---7-9-7-------------------------------
D---------9--------------9-7-9-5------------------------


Order:
Intro 2x
Verse
Chorus 1
Verse
Solo
Chorus 2
Outro


Текст, аккорды и табулатура для песни "Better Then 9 - The Taste Of Victory", исполняет "Misc Unsigned Bands".
Используемые в песне аккорды можно найти в разделе Как брать аккорды. Аккорды для шестиструнной гитары. Другие песни можно найти на нашем сайте, воспользовавшись алфавитным указателем вверху страницы.


 
Ошибка в тексте? Выделите ошибку и нажмите Ctrl+Enter