tabbed by: Sean Riedel
I made this up by my self and our band learned it pretty fast.
two guatarist and a bass player
tuning:E standard

Get out of my life by bdi

intro after bass intro
e |-----------------Play 2 times----------------------------------
B |---------------------------------------------------------------
G |---------------------------------------------------------------
D |------9---------------7---------------5---------------7--------
A |----9----9---9------7----7---7------5----5---5------7----7---7-
E |-7---------7-----5---------5-----3---------3-----5---------5---

e |---------------------------------------------------------------
B |---------------------------------------------------------------
G |---------------------------------------------------------------
D |------9---------------7---------------5------------------------
A |----9----9---9------7----7---7------5----5---5----7-7-7-7------
E |-7---------7-----5---------5-----3---------3-----5-5-5-5-5-----


verse
e |-------------------Play 2 times--------------------------------
B |---------------------------------------------------------------
G |---------------------------------------------------------------
D |---------------------------------------------------------------
A |-99999999-77777777-55555555-77777777---------------------------
E |-77777777-55555555-33333333-55555555---------------------------

e |---------------------------------------------------------------
B |---------------------------------------------------------------
G |---------------------------------------------------------------
D |---------------------------------------------------------------
A |-99999999-77777777-55555555-7-7-7-77-9--------------------------
E |-77777777-55555555-33333333-5-5-5-55-7--------------------------


intro
e |-----------------Play 2 times----------------------------------
B |---------------------------------------------------------------
G |---------------------------------------------------------------
D |------9---------------7---------------5---------------7--------
A |----9----9---9------7----7---7------5----5---5------7----7---7-
E |-7---------7-----5---------5-----3---------3-----5---------5---

e |---------------------------------------------------------------
B |---------------------------------------------------------------
G |---------------------------------------------------------------
D |------9---------------7---------------5------------------------
A |----9----9---9------7----7---7------5----5---5----7-7-7-7------
E |-7---------7-----5---------5-----3---------3-----5-5-5-5-5-----

e |-------------------Play 3 times--------------------------------
B |---------------------------------------------------------------
G |---------------------------------------------------------------
D |---------------------------------------------------------------
A |-99999999-77777777-55555555-77777777---------------------------
E |-77777777-55555555-33333333-55555555---------------------------

e |---------------------------------------------------------------
B |---------------------------------------------------------------
G |-------------------------------------9-------------------------
D |-------------------------------------7-------------------------
A |-99999999-77777777-55555555-7-7-7-77---------------------------
E |-77777777-55555555-33333333-5-5-5-55---------------------------

2nd guitair solo
e |-----------------Play 2 times----------------------------------
B |------9---------------7---------------5---------------7--------
G |----9----9---9------7----7---7------5----5---5------7----7---7-
D |-7---------7-----5---------5-----3---------3-----5---------5---
A |---------------------------------------------------------------
E |---------------------------------------------------------------

e |---------------------------------------------------------------
B |------9---------------7---------------5------------------------
G |----9----9---9------7----7---7------5----5---5----7-7-7-7--9---
D |-7---------7-----5---------5-----3---------3-----5-5-5-5-5-7---
A |---------------------------------------------------------------
E |---------------------------------------------------------------


Текст, аккорды и табулатура для песни "Bdi - Get Out Of My Life", исполняет "Misc Unsigned Bands".
Используемые в песне аккорды можно найти в разделе Как брать аккорды. Аккорды для шестиструнной гитары. Другие песни можно найти на нашем сайте, воспользовавшись алфавитным указателем вверху страницы.


 
Ошибка в тексте? Выделите ошибку и нажмите Ctrl+Enter