this is an awsome song if u havent heard of it. actually i wreote it and that
is the name of my band that im gonna have. this song has two guitars.


guitar one verse 1 and 2 play the same 

e -------------------------------------------------------------------
B -------------------------------------------------------------------
G ------9-9-7-6--------9-9-7-6--------9-9-7-6------------------------
D ---7-7--------9---9-9--------7---7-7--------9-11-9-11-9-11-9-7-----
A -------------------------------------------------------------------
E -------------------------------------------------------------------

e -------------------------------------------------------------------
B -------------------------------------------------------------------
G ------9-9-7-6--------9-9-11-9------9-9-7-6-------------------------
D --7-7---------9--9-9------------7-7--------9-11-9-11-9-11-9-7------x2
B -------------------------------------------------------------------
A -------------------------------------------------------------------
E -------------------------------------------------------------------

guitar 2 verse 1 and 2 play the same 

e -0-----0-----0-----0-----0------------------------------------------
B -0-----0-----0-----0-----0------------------------------------------
G -9-----2-----4-----7-----9------------------------------------------
D -11----4-----6-----7-----9------------------------------------------x4
A -0-----4-----0-----5-----7------------------------------------------
E -0-----0-----0-----0-----0------------------------------------------


chorus both guitars play this

e -0-----0-----0-----0-
B -0-----0-----0-----0-
G -9-----11----7-----9-
D -7-----9-----7-----9-
A -9-----11----5-----7-
E -0-----0-----0-----0-
interlude is just about the same. both guitars play the same they did for the
verses and then quietly move to the chords on the chorus and sing the chorus and
then slowly fade out...

interlude into quiet chorus

e -0-----0-----0-----0-----0-----0-----0-----0-----0-
B -0-----0-----0-----0-----0-----0-----0-----0-----0-
G -9-----2-----4-----7-----9-----9-----11----7-----9-
D -11----4-----6-----7-----9-----7-----9-----7-----9-
A -0-----4-----0-----5-----7-----9-----11----5-----7-
E -0-----0-----0-----0-----0-----0-----0-----0-----0-

end on 

e------
B------
G--9---
D--11--
A------
E------


Текст, аккорды и табулатура для песни "Batteries Not Included - Still Sleeping With The Lights On", исполняет "Misc Unsigned Bands".
Используемые в песне аккорды можно найти в разделе Как брать аккорды. Аккорды для шестиструнной гитары. Другие песни можно найти на нашем сайте, воспользовавшись алфавитным указателем вверху страницы.


 
Ошибка в тексте? Выделите ошибку и нажмите Ctrl+Enter