This is a cool song about a boy being dejected because of his mother. You either
use an acoustic or a clean electric... whatever floats your boat. Standard tuning E,A,D,G,B,E

Intro:
0----0-----0----0-----3----3------2-----2-----
--0----0-----0----0-----0----0------0-----0---
----0----0-----0----0-----0----0------0-----0-  4x
2----------2----------------------0-----------
----------------------3-----------------------
----------------------------------------------

Pre-Verse:
3---3---3/5---5----2---2---2/3---3----
-0---0-----0---0----0---0-----0---0---
--0---0-----0---0----0---0-----0---0--
--------------------------------------
3-------3/5--------2-------2/3--------
--------------------------------------

3---3---3/5---5----2---2---2/3~~~~~
-0---0-----0---0----0---0----------
--0---0-----0---0----0---0--------- 
-----------------------------------
3-------3/5--------2-------2/3~~~~~
-----------------------------------

Verse:
-----------------------------------------------
5----5------3----3-------0----0------2----2----
--0----0------0----0-------0----0------0----0-- 4x
----4----4------0-----0------4----4------3----3
5------------------------2-----------4---------
------------3----------------------------------

Chorus:
-----------------------------
3--3---0--0----2--2---2--2---
-4--4---0--0----2--2---2--2-- 4x
--4--4---0--0----2--2---2--2-
2--------------0------0------
-------3---------------------

Pre-Verse:
3---3---3/5---5----2---2---2/3---3----
-0---0-----0---0----0---0-----0---0---
--0---0-----0---0----0---0-----0---0-- 4x
--------------------------------------
3-------3/5--------2-------2/3--------
--------------------------------------

Verse:
-----------------------------------------------
5----5------3----3-------0----0------2----2----
--0----0------0----0-------0----0------0----0-- 4x
----4----4------0-----0------4----4------3----3
5------------------------2-----------4---------
------------3----------------------------------

Chorus:
-----------------------------
3--3---0--0----2--2---2--2---
-4--4---0--0----2--2---2--2-- 4x
--4--4---0--0----2--2---2--2-
2--------------0------0------
-------3---------------------

Post-Verse:
3---3---3/5---5----2---2---2/3---3----
-0---0-----0---0----0---0-----0---0---
--0---0-----0---0----0---0-----0---0-- 2x
--------------------------------------
3-------3/5--------2-------2/3--------
--------------------------------------

This next part is my favorite part
I don't know what the correct term for it though...
so I'm calling it the rythmn solo(the only solo)

5--5---5/7--7---3--3---2--2--
-0--0-----0--0---0--0---0--0-
--0--0-----0--0---0--0---0--0 4x
-----------------------0-----
5------5/7------3------------
-----------------------------

Outro:
0----0-----0----0-----3----3------2-----2-----
--0----0-----0----0-----0----0------0-----0---
----0----0-----0----0-----0----0------0-----0-  4x slow down on 
2----------2----------------------0-----------      forth time
----------------------3-----------------------
----------------------------------------------

0--0
----
---- 


Текст, аккорды и табулатура для песни "Asma - Dejected", исполняет "Misc Unsigned Bands".
Используемые в песне аккорды можно найти в разделе Как брать аккорды. Аккорды для шестиструнной гитары. Другие песни можно найти на нашем сайте, воспользовавшись алфавитным указателем вверху страницы.


 
Ошибка в тексте? Выделите ошибку и нажмите Ctrl+Enter