This is just a short song. All it's composed of is a solo I made up. It sounds
pretty sweet, it took me about two-three days to make it up. Play it at moderate-speed.
Standard Tuning, on electric w/distortion.

-------------|--------------------------|------------------------------
-------------|--------------------------|------------------------------
-------------|-----------12^14----------|----------------------12-14-12
--15-12-12/14|14-15-15^17-----15-14--/12|10/12-9-10-12/14-14/15--------
12-----------|--------------------------|------------------------------
-------------|--------------------------|------------------------------

-----------|--------|-----------------------------|-----------------
-----------|--------|-----------------------------|-----------------
-----------|--------|/12-------14---17-15-14^15^14|-----------------
14^15^14-14|--------|---10--/15--/17--------------|15-15/17-14-14/15
-----------|15-15/17|-----------------------------|-----------------
-----------|--------|-----------------------------|-----------------

-----------------------------------------------------|-------|
-----------------------------------------------------|-----10|
-------------------------------------------10--------|10-12--|
12-12/14-------------------------------------12-12/14|-------|
--------15-15/17-14-14/15-12-12/14-10-10/12----------|-------|
-----------------------------------------------------|-------|

9-10/--15-14-12^14^12-12|-----------------------------------|
------------------------|14-14/15---------------------------|
------------------------|--------12-12/14-------------------|
------------------------|----------------15-15/17-14-14/15-|
------------------------|-----------------------------------|
------------------------|-----------------------------------|

------------------|---------|
------------------|---------|
/14-12------------|---------|
-------14-14/15-14|10-10/-12|
------------------|---------|
------------------|---------|

If you have any questions or comments, please e-mail at [email protected]


Текст, аккорды и табулатура для песни "Asma - A Good Solo", исполняет "Misc Unsigned Bands".
Используемые в песне аккорды можно найти в разделе Как брать аккорды. Аккорды для шестиструнной гитары. Другие песни можно найти на нашем сайте, воспользовавшись алфавитным указателем вверху страницы.


 
Ошибка в тексте? Выделите ошибку и нажмите Ctrl+Enter