This is a song that our band wrote and it goes sommat like this.


Intro
G|-----------------------------|
D|77-------3--5--77-------3--5-|
A|-----------------------------|
E|-----------------------------|


Bridge
G|-----------------|
D|-----------------|
A|-----------------|
E|5555555555555555-|


Verse
G|--9-767676--5-3---7-5--|
D|7----------3---5-5---7-|
A|-----------------------|
E|-----------------------|


Chorus
G|------------5-7-|
D|22222222-5-7----|
A|----------------|
E|----------------|

Order of song

Intro x4
Bridge
Verse x4
Bridge
Verse x4
Bridge
Chorus x4
Bridge
Intro x4
Bridge
Verse x4
Bridge
Chorus x4
Bridge
Verse x4


Текст, аккорды и табулатура для песни "75 Pages - World Of Mistery", исполняет "Misc Unsigned Bands".
Используемые в песне аккорды можно найти в разделе Как брать аккорды. Аккорды для шестиструнной гитары. Другие песни можно найти на нашем сайте, воспользовавшись алфавитным указателем вверху страницы.


 
Ошибка в тексте? Выделите ошибку и нажмите Ctrl+Enter