Verse1
e--0-0-7-7-9-9-7-7-5-5-4-4-2-2-0-0--|
b-0-0-0-0-0-0-0-0-0-0-0-0-0-0-0-0-0-|
g-----------------------------------|
d-----------------------------------|
a-----------------------------------|
E-----------------------------------|

  verse2
e--7-7-5-5-4-4-2-7-7-5-5-4-4-2--|
b-0-0-0-0-0-0-0-0-0-0-0-0-0-0-0-|
g-------------------------------|
d-------------------------------|
a-------------------------------|
E-------------------------------|

Verse1-verse2-verse1

power chords

verse1
e-----------------------------------|
b-----------------------------------|
g-----------------------------------|
d-2-2-9-9-11-11-9-9-7-7-6-6-4-4-2-2-|
a-2-2-9-9-11-11-9-9-7-7-6-6-4-4-2-2-|
e-0-0-7-7--9--9-7-7-5-5-4-4-2-2-0-0-|

e---------------------------------|
b---------------------------------|
g---------------------------------|
d-9-9-7-7-6-6-4-4-9-9-7-7-6-6-4-4-|
a-9-9-7-7-6-6-4-4-9-9-7-7-6-6-4-4-|
E-7-7-5-5-4-4-2-2-7-7-5-5-4-4-2-2-|


Текст, аккорды и табулатура для песни "Twinkle Twinkle Little Star", исполняет "Misc Traditional".
Используемые в песне аккорды можно найти в разделе Как брать аккорды. Аккорды для шестиструнной гитары. Другие песни можно найти на нашем сайте, воспользовавшись алфавитным указателем вверху страницы.


 
Ошибка в тексте? Выделите ошибку и нажмите Ctrl+Enter