DU GAMLA DU FRIA
		BY: Richard Dybeck
		Tabed by: Oskar. K

---------------------------------------------|
-0---0-------------------0---0---------------|
----------0--0---0----2-----------2----0-----|
------------------------------------------4--|
---------------------------------------------|
---------------------------------------------|
DU GAMLA DU FRIA,        DU FJ?LL H?GA NORD

---------------------------------------------|
-----------------------------0---------------|
--2------2---------0---2----------0----------|
------------4------------4-----------2--0----|
---------------------------------------------|
---------------------------------------------|
  DU TYSTA,        DU  GL?DJE RIKA SJ?NA


----------------------------------------------|
----------------------------------------------|
----0---0---2-------------0-------------------|
0---------------4----4---------1-0--1---4---0-|
----------------------------------------------|
----------------------------------------------|
JAG H?LSAR  DIG  V?NASTE  LAND   UPP  P?  JORD

-----------------------------------------------|
-----------------------0-------1----0----------|
--------0------------------0------------2---0--|
----0-------4---0---2--------------------------|
-----------------------------------------------|
-----------------------------------------------|
    DIN SOL DIN HIMMEL DINA    ?NGDER    GR?NA

---------------------------------------------|
-------------------0-------1----0------------|
-----0-----------------0------------2---0----|
0-------4---0---2----------------------------|
---------------------------------------------|
---------------------------------------------|
DIN SOL DIN HIMMEL DINA    ?NGDER    GR?NA

SECOND VERSE (PLAYED AS FIRST)

Du tronar p? minnen fr?n fornstora dar
D? ?rat ditt namn fl?g ?ver jorden
Jag vet att du ?r och f?rblir det du var
Ja! jag vill leva jag vill d? i Norden
Ja! jag vill leva jag vill d? i Norden.


If u want to add or dissad something please e- mail me: [email protected]


Текст, аккорды и табулатура для песни "Swedish National Anthem", исполняет "Misc Traditional".
Используемые в песне аккорды можно найти в разделе Как брать аккорды. Аккорды для шестиструнной гитары. Другие песни можно найти на нашем сайте, воспользовавшись алфавитным указателем вверху страницы.


 
Ошибка в тексте? Выделите ошибку и нажмите Ctrl+Enter