#----------------------------------PLEASE NOTE---------------------------------#
#This file is the author's own work and represents their interpretation of the #
#song. You may only use this file for private study, scholarship, or research. #
#------------------------------------------------------------------------------##
From: [email protected] (Lars Persson)


                           MALAGUENA (SPANISH STYLE)
				
                           (BY LARS PERSSON)
			   [email protected]




[email protected]----
----------0------------0--------1---0--------------------------------
------1------------1--------2-----------2---0------------------------
--2------------2--------------------------------3--------------------
---------------------------------------------------------------------
---------------------------------------------------------------------


----0---0---0----0---0---0----0---0---0---0---0----------------------
----------0------------0--------1---0--------------------------------
------1------------1--------2-----------2---0------------------------
--2------------2--------------------------------3--------------------
---------------------------------------------------------------------
---------------------------------------------------------------------






----0---0------0---0-------0---0------0---0-------------------------
----------0--3---0----3--1-------1--0-------0------------------------
------1----------------------2----------0----------------------------
--2------------------------------------------------------------------
---------------------------------------------------------------------
---------------------------------------------------------------------


---0---0---0---0---0---0---0---0---0---0---0---0---0---0---0---0---0-
-----1---0-----------------------------------------------------------
-2-----------2---0--------------------------------------------------
---------------------3---2---3---2---0---------------2---------------
-----------------------------------------3---2---0-------3---2---0---
---------------------------------------------------------------------

       OLE ! (MUST BE SINGED HERE , VERY IMPORTANT!!)
--0------------------------------------------------------------------
--0------------------------------------------------------------------
--1------------------------------------------------------------------
--2------------------------------------------------------------------
---------------------------------------------------------------------
---------------------------------------------------------------------



 




Текст, аккорды и табулатура для песни "Malaguena", исполняет "Misc Traditional".
Используемые в песне аккорды можно найти в разделе Как брать аккорды. Аккорды для шестиструнной гитары. Другие песни можно найти на нашем сайте, воспользовавшись алфавитным указателем вверху страницы.


 
Ошибка в тексте? Выделите ошибку и нажмите Ctrl+Enter