Hatikva- The Israeli National Anthem

e|--------------------------------------------|
B|-------------------------------------14-----|
G|--0--5--7--9--11--13--13--14--13--14----13--|
D|--------------------------------------------|
A|--------------------------------------------|
E|--------------------------------------------|

e|-----------------------------------------|
B|-----------------------------------------|
G|--11--11--11--9--9--8--6--8?9--6--0------|
D|----------------------------------/-----|
A|-------------------only play the 0-------| the first time
E|-----------------------------------------|

Repeat these two bars once?

Then?
e|-----------------------------------|
B|-----13--13--13--10--13--10--9--8--|
G|--6--------------------------------|
D|-----------------------------------|
A|-----------------------------------|
E|-----------------------------------|
Repeat this part again once?

Then?
e|-------------------------------------------------|
B|--11--11--11----------11--13--15--17--14--12-10--|
G|--------------13--13-----------------------------|
D|-------------------------------------------------|
A|-------------------------------------------------|
E|-------------------------------------------------|

e|----------------------------------------|
B|--10--12--12----------8--7-----7--8-----|
G|--------------14--14--------9--------9--|
D|----------------------------------------|
A|----------------------------------------|
E|----------------------------------------|

Repeat these two bars once
The end  ! !
          O


Текст, аккорды и табулатура для песни "Hatikva Israeli National Anthem", исполняет "Misc Traditional".
Используемые в песне аккорды можно найти в разделе Как брать аккорды. Аккорды для шестиструнной гитары. Другие песни можно найти на нашем сайте, воспользовавшись алфавитным указателем вверху страницы.


 
Ошибка в тексте? Выделите ошибку и нажмите Ctrl+Enter