Green Sleeves (Simple)
Tabbed by: [email protected]

[email protected]-------------|
--------------7-3-3-5-8-55-4-5-7-4-0--------------7-3-3-5-8-7-5-4-2-4-5-------|
------------------------------------------------------------------------------|
------------------------------------------------------------------------------|
------------------------------------------------------------------------------|
------------------------------------------------------------------------------|


-10-10-9-7-5------------------------10-10-9-7-5-------------------------------|
-------------7-3-3-5-8-55-4-5-7-4-0-------------7-3-3-5-8-7-5-4-2-4-5-5-------|
------------------------------------------------------------------------------|
------------------------------------------------------------------------------|
------------------------------------------------------------------------------|
------------------------------------------------------------------------------|

Green Sleeves (Traditional)
Tabbed by: [email protected] (Erik Mayer)

         Am                G                 Am                E
|-----|--------0--1--0--|-----------------|-----------------|--------------|
|-----|--1--3-----------|--3--0--------0--|--1--------------|--0-----------|
|--2--|-----------------|--------0--2-----|-----2--2--1--2--|-----1-----2--|
|-----|-----------------|-----------------|-----------------|--------2-----|
|-----|--0-----0--------|-----------------|--0-----0--------|--2-----------|
|-----|-----------------|--3-----3--------|-----------------|--------0-----|

   Am                G                 Am       E           Am
|--------0--1--0--|-----------------|--------------------|-----------|
|--1--3-----------|--3--0--------0--|--1--0--------------|-----------|
|-----------------|--------0--2-----|--------2--1-----1--|--2--2--2--|
|-----------------|-----------------|--------------4-----|-----------|
|--0-----0--------|-----------------|--0-----0--2--------|--0-----0--|
|-----------------|--3-----3--------|--------------------|-----------|

   C              G                 Am                E
|--3--3--1--0--|-----------------|-----------------|-----------|
|--------------|--2--0--------0--|--1--------------|--0--------|
|--------------|--------0--2-----|-----2--2--1--2--|-----1-----|
|--------------|-----------------|-----------------|--------2--|
|--3--3--------|-----------------|--0-----0--------|--2--------|
|--------------|--3-----3--------|-----------------|--------0--|

   C              G                 Am       E           Am
|--3--3--1--0--|-----------------|--------------------|--------|
|--------------|--2--0--------0--|--1--0--------------|--------|
|--------------|--------0--2-----|--------2--1-----1--|--2--2--|
|--------------|-----------------|--------------4-----|--------|
|--3--3--------|-----------------|--0-----0-----------|--0--0--|
|--------------|--3-----3--------|-----------0--------|--------|


Текст, аккорды и табулатура для песни "Green Sleeves", исполняет "Misc Traditional".
Используемые в песне аккорды можно найти в разделе Как брать аккорды. Аккорды для шестиструнной гитары. Другие песни можно найти на нашем сайте, воспользовавшись алфавитным указателем вверху страницы.


 
Ошибка в тексте? Выделите ошибку и нажмите Ctrl+Enter