E---------------------|
B----1-0-1------------|
G-0-------------------|
D---------------------|
A---------------------|
E---------------------|

E---------------------|
B--3-------3----------|
G-----2---------------|
D---------------------|
A---------------------|
E---------------------|

E---------------------|
B-1?0----------0------|
G------------2--------|
D---------------------|
A---------------------|
E---------------------|

E--------------------|
B----1---------------|
G--------------------|
D--------------------|
A--------------------|
E--------------------|
(Repeat 1x)

E-0-0-0--------------|
B--------------------|
G--------------------|
D--------------------|
A--------------------|
E--------------------|

E----0-0-0----------|
B-------------------|
G-------------------|
D-------------------|
A-------------------|
E-------------------|


E-0---------------|
B----3-1-3--------|
G-----------------|
D-----------------|
A-----------------|
E-----------------|

E?0---------------|
B-----------------|
G-----------------|
D-----------------|
A-----------------|
E-----------------|

E?0-0-1-0-----------|
B-------------------|
G-------------------|
D-------------------|
A-------------------|
E-------------------|

E--------------------|
B?3------3-----------|
G-------2------------|
D--------------------|
A--------------------|
E--------------------|

E--------0---------|
B?1-0---3----------|
G------------------|
D------------------|
A------------------|
E------------------|

E------------------|
B---1--------------|
G------------------|
D------------------|
A------------------|
E------------------|
(Repeat whole song once more)

Now there you have it Aura lee hope you like it if there?s anything wrong with it but I
  Really don?t think so e-mail me at [email protected]


Текст, аккорды и табулатура для песни "Aura Lee", исполняет "Misc Traditional".
Используемые в песне аккорды можно найти в разделе Как брать аккорды. Аккорды для шестиструнной гитары. Другие песни можно найти на нашем сайте, воспользовавшись алфавитным указателем вверху страницы.


 
Ошибка в тексте? Выделите ошибку и нажмите Ctrl+Enter