Artist: Unknown
Title: Star Trek Original TV Series Main Title
Tabbed: John Hohengarten ([email protected])

I extracted these notes from a midi file... so I can't
take credit for figuring out the notes themselves
(of course...)

I do take credit however for putting the effort to tab
it out from a midi since no other tab seems to exist...

Enjoy!

Standard Tuning (EADGBe)

~ means to let note ring

e|--17~~~~~-12~~~~~-15~~~~~-7~~~~~--     e|--5~~~~~-0~~~~~-3~~~~~---------|
B|----------------------------------     B|-----------------------0~~~~~--|
G|---------------------------------- or  G|-------------------------------|
D|----------------------------------     D|-------------------------------|
A|----------------------------------     A|-------------------------------|
E|----------------------------------     E|-------------------------------|


e|-------3~~~-2-----0-5~~~~-5-9~~~--|
B|-----3--------3-0-----------------|
G|--2-------------------------------|
D|----------------------------------|
A|----------------------------------|
E|----------------------------------|


e|-------2-7~~~~~-6~~-2~~-----4~~-9~~~-9-9-13~~~~--|
B|-2~~~~------------------4~~----------------------|
G|-------------------------------------------------|
D|-------------------------------------------------|
A|-------------------------------------------------|
E|-------------------------------------------------|


e|-1~~11~~--10-8-6-5-4~~~--|
B|-------------------------|
G|-------------------------|
D|-------------------------|
A|-------------------------|
E|-------------------------|


e|-------0-6~~~-4--|
B|-----2-----------|
G|-1-3-------------|
D|-----------------|
A|-----------------|
E|-----------------|


e|-2-1~~~--13~~-11-10-8-6-5---|
B|----------------------------|
G|----------------------------|
D|----------------------------|
A|----------------------------|
E|----------------------------|


e|-------1-3-5-10~~--|
B|-2~~-4-------------|
G|-------------------|
D|-------------------|
A|-------------------|
E|-------------------|


e|-4-3-5-6-8-10-11-10-13~~~~~-16~~~~~-15~~---13~~~~-3~~~~~--|
B|----------------------------------------------------------|
G|----------------------------------------------------------|
D|----------------------------------------------------------|
A|----------------------------------------------------------|
E|----------------------------------------------------------|

e|-------3-8-3~~~-6~~---8~~-10~~-18~~~~~--|
B|---1-4----------------------------------|
G|-0--------------------------------------|
D|----------------------------------------|
A|----------------------------------------|
E|----------------------------------------|


Текст, аккорды и табулатура для песни "Star Trek", исполняет "Misc Television".
Используемые в песне аккорды можно найти в разделе Как брать аккорды. Аккорды для шестиструнной гитары. Другие песни можно найти на нашем сайте, воспользовавшись алфавитным указателем вверху страницы.


 
Ошибка в тексте? Выделите ошибку и нажмите Ctrl+Enter