Title: South Park Theme
submitted by Treyrab
[email protected]

[email protected]-------------|
-13--x--x--13--13--14---------|-10--10--10--9--9--9--7--14-||-----------------|
-----------------------11--14-|--8---8---8--7--7--7--5-----||*-11--x--11--x---|
------------------------------|----------------------------||*-10--x--10--x---|
------------------------------|----------------------------||-----------------|
------------------------------|----------------------------||-----------------|


---------------------------------------|------------------------|-------------|
---------------------------------------|-10--10--10--13--13--13-|-10--10--10--|
-11--x--11--x--11--x--11--x--11--x--11-|--8---8---8--11--11--11-|--8---8---8--|
-10--x--10--x--10--x--10--x--10--x--10-|------------------------|-------------|
---------------------------------------|------------------------|-------------|
---------------------------------------|------------------------|-------------|


--------------||-9----------------------------|-13-|-11--11--11--14--14--14--|
-13--13--13---||-13--x--x--13--13--14---------|----|-10--10--10--13--13--13--|
-11--11--11-*-||-----------------------11--14-|----|-------------------------|
------------*-||------------------------------|----|-------------------------|
--------------||------------------------------|----|-------------------------|
--------------||------------------------------|----|-------------------------|


-11--11--11--14--14--14-|-9---x--x---------------------|-x--x--9---x--x--9----|
-10--10--10--13--13--13-|-13--x--x--13--13--14---------|-x--x--13--x--x--13---|
------------------------|-----------------------11--14-|----------------------|
------------------------|------------------------------|----------------------|
------------------------|------------------------------|----------------------|
------------------------|------------------------------|----------------------|


-9----------------------------------------------------------------------------|
-13---------------------------------------------------------------------------|
------------------------------------------------------------------------------|
------------------------------------------------------------------------------|
------------------------------------------------------------------------------|
------------------------------------------------------------------------------|


Текст, аккорды и табулатура для песни "South Park Theme", исполняет "Misc Television".
Используемые в песне аккорды можно найти в разделе Как брать аккорды. Аккорды для шестиструнной гитары. Другие песни можно найти на нашем сайте, воспользовавшись алфавитным указателем вверху страницы.


 
Ошибка в тексте? Выделите ошибку и нажмите Ctrl+Enter