|----------------------------|---5--3--2--3--2--3--2--0---|
|--------3--2---------3--2---|----------------------------|
|------4------------4--------|----------------------------|
|----4------------4----------|----------------------------|
|--2------------2------------|----------------------------|
|----------------------------|----------------------------|



|--2--0--2--0--2--0----------|---2--0-----0-----0---------|
|---------------------3------|---------3-----3-----3--2---|
|----------------------------|----------------------------|
|----------------------------|----------------------------|
|----------------------------|----------------------------|
|----------------------------|----------------------------|




|-----0---------02-----------|-------5-7-5-7-5-7-5--------|
|-------3-2-3-2-3------------|----------------------------|
|----------------------------|----------------------------|
|----------------------------|----------------------------|
|----------------------------|----------------------------|
|----------------------------|----------------------------|



|-------5-7-5-7-5-7-5--------|---5-2-5-7-10-12-10-7-5-7---|
|----------------------------|----------------------------|
|----------------------------|----------------------------|
|----------------------------|----------------------------|
|----------------------------|----------------------------|
|----------------------------|----------------------------|


This is the complete intro to the show. Its not that hard to learn,so have fun playing along when ever reruns come on.

[email protected]




Текст, аккорды и табулатура для песни "Mash", исполняет "Misc Television".
Используемые в песне аккорды можно найти в разделе Как брать аккорды. Аккорды для шестиструнной гитары. Другие песни можно найти на нашем сайте, воспользовавшись алфавитным указателем вверху страницы.


 
Ошибка в тексте? Выделите ошибку и нажмите Ctrl+Enter