Song: Knight Rider Theme
Artist: Who knows?
Tuning: Standard


G|------------------------------------------------------|
D|------------------------------------------------------|
A|-00-00-00--00--00--------------------00-00-00--00--00-|
E|-------------------33-33-33--33--33-------------------|

G|------------------------------------------------------|
D|------------------------------------------------------|
A|-22-22-22--22--22--00-00-00--00--00-------------------|
E|-------------------------------------33-33-33--33--33-|

G|--------------------------------------------|
D|--------------------------------------------|
A|-00---00---00---00--00-00-------------00-00-|
E|--------------------------33---33--33-------|

G|----------------------|
D|----------------------|
A|-00--00--00--00-00----|
E|-------------------33-|

G|------------------------|
D|------------------------|
A|--------------------0-2-|
E|-33--33-33-33-33-3------|

G|--------------------------------------------------|
D|--------------------------------------------------|
A|-00-00-00--00--00--------------------00-00-00--00-|
E|-------------------33-33-33--33--33---------------|

G|----------------------------------------------|
D|----------------------------------------------|
A|-----------------00-00-00--00-----------------|
E|-33-33-33--33-33---------------33--33--33--02-|

G|----------------------------------------------|
D|----------------------------------------------|
A|-00-00-00--00--00--------------------22-22-2--|
E|-------------------33-33-33--33--33-----------|


Текст, аккорды и табулатура для песни "Knight Rider Theme", исполняет "Misc Television".
Используемые в песне аккорды можно найти в разделе Как брать аккорды. Аккорды для шестиструнной гитары. Другие песни можно найти на нашем сайте, воспользовавшись алфавитным указателем вверху страницы.


 
Ошибка в тексте? Выделите ошибку и нажмите Ctrl+Enter