VERSE

                                1                      2
 -5----4-----5----8------7-----|----2----4----5----7--|----2----4----5----7----5----5----|
 -5----5-----7----10-----9-----|----2----5----7----9--|----2----5----7----9----5----5----|
*-6----6-----7----10-----9-----|----2----6----7----9-*|----2----6----7----9----6----6----|
*-7----6-----7----10-----9-----|----4----6----7----9-*|----4----6----7----9----7----7----|
 -7----4-----5----8------7-----|----4----4----5----7--|----4----4----5----7----7----7----|
 -5----4-----5----8------7-----|----2----4----5----7--|----2----4----5----7----5----5----|
  a    c#min a    f      e        f#min c#min d    e     f#min c#min d    e    a    a
MIDDLE
          1          2
4----4---|-5----5---|-5-----5----7-----7-----------------------------------------------|
5----5---|-7----7---|-7-----7----9-----9-----------------------------------------------|
6----6---|-7----7---|-7-----7----9-----9-----------------------------------------------|
6----6---|-7----7---|-7-----7----9-----9-----------------------------------------------|
4----4---|-5----5---|-5-----5----7-----7-----------------------------------------------|
4----4---|-5----5---|-5-----5----7-----7-----------------------------------------------|
c#min      d    d     d     d    e     e
chorus

5----5----4----2----5----4----2----2----5----5----4----2----5----4----4----2----5----7----|
5----5----5----2----7----5----3----3----5----5----5----2----5----4----5----2----7----9----|
6----6----6----2----7----6----4----4----6----6----6----2----6----4----6----2----7----9----|
7----7----6----4----7----6----4----4----7----7----6----4----7----6----6----4----7----9----|
7----7----4----4----5----4----2----2----7----7----4----4----7----6----4----4----5----7----|
5----5----4----2----5----4----2----2----5----5----4----2----5----4----4----2----5----7----|
a    a  c#min f#min a  c#min bmin bmin  a    a  c#min f#min a  g#min c#min f#min d   e
5-----------------------------------------------------------------------------------------|
5-----------------------------------------------------------------------------------------|
6--continue-------------------------------------------------------------------------------|
7-----------------------------------------------------------------------------------------|
7-----------------------------------------------------------------------------------------|
5-----------------------------------------------------------------------------------------|
a
----------------------------------------------------------------------------------------|
----------------------------------------------------------------------------------------|
----------------------------------------------------------------------------------------|
----------------------------------------------------------------------------------------|
----------------------------------------------------------------------------------------|
----------------------------------------------------------------------------------------|


----------------------------------------------------------------------------------------|
----------------------------------------------------------------------------------------|
----------------------------------------------------------------------------------------|
----------------------------------------------------------------------------------------|
----------------------------------------------------------------------------------------|
----------------------------------------------------------------------------------------|


Текст, аккорды и табулатура для песни "Kenshin", исполняет "Misc Television".
Используемые в песне аккорды можно найти в разделе Как брать аккорды. Аккорды для шестиструнной гитары. Другие песни можно найти на нашем сайте, воспользовавшись алфавитным указателем вверху страницы.


 
Ошибка в тексте? Выделите ошибку и нажмите Ctrl+Enter