This Is A Swedish TV-program! - Jцnssоn Ligan
Submitted By: Viktor
EMail: [email protected]


[email protected]--||
B|-1---3---1-----------1---3---1---------------3---3-------3-------||
G|-----------------------------------------------------2-----------||
D|-----------------------------------------------------------------||
A|-----------------------------------------------------------------||
E|-----------------------------------------------------------------||


E|-------------1---1---------------1---1---0-----------------------||
B|-1---3---1-----------1---3---1---------------1---1-------1-------||
G|-----------------------------------------------------0-----------||
D|-----------------------------------------------------------------||
A|-----------------------------------------------------------------||
E|-----------------------------------------------------------------||


Текст, аккорды и табулатура для песни "Jonsson Ligan", исполняет "Misc Television".
Используемые в песне аккорды можно найти в разделе Как брать аккорды. Аккорды для шестиструнной гитары. Другие песни можно найти на нашем сайте, воспользовавшись алфавитным указателем вверху страницы.


 
Ошибка в тексте? Выделите ошибку и нажмите Ctrl+Enter