----1-----------1--------1-----1--5--3--1--0-----0-----1----------1-----1-----|
-1-----1-----1-----1--1-----1-----------------3-----1-----1----1-----1-----3--|
------------------------------------------------------------------------------|
----------3--------------------------------------------------3----------------|
------------------------------------------------------------------------------|
------------------------------------------------------------------------------|


------------------------------------------------------------------------------|
--1---------------------------------------------------------------------------|
-----3--2--0------------------------------------------------------------------|
--------------3---------------------------------------------------------------|
------------------------------------------------------------------------------|
------------------------------------------------------------------------------|


Текст, аккорды и табулатура для песни "Jeopardy Theme Song", исполняет "Misc Television".
Используемые в песне аккорды можно найти в разделе Как брать аккорды. Аккорды для шестиструнной гитары. Другие песни можно найти на нашем сайте, воспользовавшись алфавитным указателем вверху страницы.


 
Ошибка в тексте? Выделите ошибку и нажмите Ctrl+Enter