----------------------------------------------------------------------
			     Inspector Gadjet - Theme
----------------------------------------------------------------------

Tabbed By: Nicholas Schlesinger ([email protected])

G------------------------------------------2-1-
D---------0-2----1---1------------0-2----------
A--0-2-3------3---2---1--0-2-3-----------------
E----------------------------------------------

G---------------------------2-1-0----------2---
D---------0-2----1---1------------4-3--2-------
A--0-2-3------3---2---1------------------------
E----------------------------------------------

G------------------------------------------2-1-
D---------0-2----1---1------------0-2----------
A--0-2-3------3---2---1--0-2-3-----------------
E----------------------------------------------

G------------------------------------------2---
D---------0-2----1---1-----------------2-------
A--0-2-3------3---2---1--0---------------------
E------------------------------4-3-2-1---------


Текст, аккорды и табулатура для песни "Inspector Gadget", исполняет "Misc Television".
Используемые в песне аккорды можно найти в разделе Как брать аккорды. Аккорды для шестиструнной гитары. Другие песни можно найти на нашем сайте, воспользовавшись алфавитным указателем вверху страницы.


 
Ошибка в тексте? Выделите ошибку и нажмите Ctrl+Enter