-------------------------------1--------------0-----------------0--1----------|
----------1-----------------0--------0--1--3--------------1--3----------------|
-------0--------------0--2--------2--------------------0--------------0--0----|
-2--3--------0--2--3-----------------------------2--3-------------------------|
------------------------------------------------------------------------------|
------------------------------------------------------------------------------|


-0--------0--------0--------0-------------------------------------------------|
----3--------3--------3--------3----------------------------------------------|
-------0--------0--------0----------------------------------------------------|
----------------------------------------------------2-------------------------|
------------------------------------------------------------------------------|
----------------------------------0--3--1--1--0--3-----0--3--1--1--0--3--1----|


----------------------1-----------1-----------1-------------------------------|
-------------------------------------------------4--4--4-----------4----------|
-------------------------3--3--3-----3--3--3--------------1--1--1-----1--1----|
-------------2----------------------------------------------------------------|
------------------------------------------------------------------------------|
-1--1--0--3-----1--3----------------------------------------------------------|


Текст, аккорды и табулатура для песни "Indiana Jones Theme", исполняет "Misc Television".
Используемые в песне аккорды можно найти в разделе Как брать аккорды. Аккорды для шестиструнной гитары. Другие песни можно найти на нашем сайте, воспользовавшись алфавитным указателем вверху страницы.


 
Ошибка в тексте? Выделите ошибку и нажмите Ctrl+Enter