___________           ___
|---- |     |      |      |     |  |   |     /       /  /       /
|     |     |      |      |     |  |___|    /       /  /       /  
|--   |     |      |      |     |  |      /----   /           /----
|     |_____|      |      |_____|  |     /       /           /      
**************************************************************************
                         !!Futurama Theme song!!

                          tabbed by BloodBrother
                          [email protected]


This took me only about 10 minutes to figure out. So if you find something wrong in it,
or you have a better version please write me.

e------------------------|-----------------------------|
B------------------------|-----------------------------|
G--------11-11-------9-9-|--------11-11-------9-9-8----|
D-11-11--11-11--9-9--9-9-|-11-11--11-11--9-9--9-9-8----|
A-11-11---9--9--9-9--7-7-|-11-11---9--9--9-9--7-7-6----|
E--9--9---------7-7------|--9--9---------7-7-----------|

e------------------------|-----------------------------|
B------------------------|-----------------------------|
G--------11-10-------9-8-|--------11-10-------9-9-8-8--|
D-11-11--11-10--9-9--9-8-|-11-11--11-10--9-9--9-9-8-8--|
A-11-11---9--8--9-9--7-6-|-11-11---9--8--9-9--7-7-6-6--|
E--9--9---------7-7------|--9--9---------7-7-----------|

or play:

e------7-7-------5-5-|------7-7-------5-5-4---|
B-7-7-------5-5------|-7-7-------5-5----------|
G--------------------|------------------------|
D--------------------|------------------------|
A--------------------|------------------------|
E--------------------|------------------------|

e------7-6-------5-4-|------7-6-------5-5-4-4-|
B-7-7-------5-5------|-7-7-------5-5----------|
G--------------------|------------------------|
D--------------------|------------------------|
A--------------------|------------------------|
E--------------------|------------------------|


Текст, аккорды и табулатура для песни "Futurama", исполняет "Misc Television".
Используемые в песне аккорды можно найти в разделе Как брать аккорды. Аккорды для шестиструнной гитары. Другие песни можно найти на нашем сайте, воспользовавшись алфавитным указателем вверху страницы.


 
Ошибка в тексте? Выделите ошибку и нажмите Ctrl+Enter