Daily Show Theme


                                                                Justin Wnorowski


E||-------------------------|------------------------|-------------------------|
B||-------------------------|------------------------|-------------------------|
G||-------------------------|------------------------|-------------------------|
D||-------------------------|------------------------|-------------------------|
A||-------6--------6--------|------------------------|-------6--------6--------|
E||--7-------7--9-----9--7--|--4----4--0--2--0----0--|--7-------7--9-----9--7--|

------------------------|--------------------------|--------------------------|
------------------------|--------------------------|--------------------------|
------------------------|--6/-8--8--8--8/-6--6--6--|--6/-8--8--8--8/-6--6--6--|
------------------------|--4/-6--6--6--6/-4--4--4--|--4/-6--6--6--6/-4--4--4--|
------------------------|--------------------------|--------------------------|
--4----4--0--2--0----0--|--------------------------|--------------------------|

-------------------------|------------------------|-------------------------|
-------------------------|------------------------|-------------------------|
-------------------------|------------------------|-------------------------|
-------------------------|------------------------|-------------------------|
-------6--------6--------|------------------------|-------6--------6--------|
--7-------7--9-----9--7--|--4----4--0--2--0----0--|--7-------7--9-----9--7--|

------------------------|-------------------||
------------------------|-------------------||
------------------------|-------------------||
------------------------|--2----------------||
------------------------|--2----------------||
--4----4--0--2--0----0--|--0----------------||


Текст, аккорды и табулатура для песни "Daily Show Theme", исполняет "Misc Television".
Используемые в песне аккорды можно найти в разделе Как брать аккорды. Аккорды для шестиструнной гитары. Другие песни можно найти на нашем сайте, воспользовавшись алфавитным указателем вверху страницы.


 
Ошибка в тексте? Выделите ошибку и нажмите Ctrl+Enter