|>> CRUEL ANGEL'S THESIS >>|
| NEON GENESIS EVANGELION  |
|>>>>>>>>>>>>>>>>>>>>>>>

   1 + + + 2 + + + 3 + + + 4 + + +   1 + + + 2 + + + 3 + + + 4 + + +
G|---------------------------------|---------------------------------|
D|-1-------------------------------|---------------------------------|
A|---------------------------------|-1-------------------------------|
E|---------------------------------|---------------------------------|

   1 + + + 2 + + + 3 + + + 4 + + +   1 + + + 2 + + + 3 + + + 4 + + +
G|---------------------------------|---------------------------------|
D|---------------------------------|---------------------------------|
A|-3---------------1---------------|---------------------------------|
E|---------------------------------|-4-------------------------------|

   1 + + + 2 + + + 3 + + + 4 + + +   1 + + + 2 + + + 3 + + + 4 + + +
G|---------------------------------|---------------------------------|
D|---------------------------------|-1-------------------------------|
A|-1---------------1---------------|-----------------3---------------|
E|---------------------------------|---------------------------------|

   1 + + + 2 + + + 3 + + + 4 + + +   1 + + + 2 + + + 3 + + + 4 + + +
G|---------------------------------|-----------------0---------------|
D|-0-------------------------------|-----------------5---------------|
A|-5-------------------------------|---------------------------------|
E|---------------------------------|-3-------------------------------|

   1 + + + 2 + + + 3 + + + 4 + + +   1 + + + 2 + + + 3 + + + 4 + + +
G|---------------------------------|---------------------------------|
D|-1-------------------------------|---------------------------------|
A|---------------------------------|-1-------------------------------|
E|---------------------------------|---------------------------------|

   1 + + + 2 + + + 3 + + + 4 + + +   1 + + + 2 + + + 3 + + + 4 + + +
G|---------------------------------|---------------------------------|
D|---------------------------------|---------------------------------|
A|-3---------------1---------------|-4-------------------------------|
E|---------------------------------|---------------------------------|

   1 + + + 2 + + + 3 + + + 4 + + +   1 + + + 2 + + + 3 + + + 4 + + +
G|---------------------------------|---------------------------------|
D|---------------------------------|-1-------------------------------|
A|-1---------------1---------------|-----------------3---------------|
E|---------------------------------|---------------------------------|

   1 + + + 2 + + + 3 + + + 4 + + +   1 + + + 2 + + + 3 + + + 4 + + +
G|---------------------------------|-----------------0---------------|
D|-0-------------------------------|-----------------5---------------|
A|-5-------------------------------|---------------------------------|
E|---------------------------------|-3-------3---------------3-------|



Текст, аккорды и табулатура для песни "Cruel Angels Thesis", исполняет "Misc Television".
Используемые в песне аккорды можно найти в разделе Как брать аккорды. Аккорды для шестиструнной гитары. Другие песни можно найти на нашем сайте, воспользовавшись алфавитным указателем вверху страницы.


 
Ошибка в тексте? Выделите ошибку и нажмите Ctrl+Enter