This is my 5th tab.  I love Celebrity Deathmatch, it's a really funny show, but
I couldn't find the tab for the theme music, so I figured it out and it was quite
easy.  Actually, I've never seen the opening for one of the episodes, so I don't
if this is the same, although I do know this is the music for the end titles.  Enjoy!

Drop-D tuning
h      hammer on
p      pull off
s      slide
PM     palm muting
~      vibrating
x      muffled strings

Both guitars are distorted for the whole thing

Guitar 1 (x2)
e[---------------------------------------------------------------------------
B[---------------------------------------------------------------------------
G[---------------------------------------------------------------------------
D[------------------2-2-0-2h3-2--2-0-2h3--2-0-2h3-2----5-5-5-5-6-6-6-6-------
A[-2-2-2-2-2-2-2-2--2-2-0-2h3-2--2-0-2h3--2-0-2h3-2----5-5-5-5-6-6-6-6-------
D[-2-2-2-2-2-2-2-2--2-2-0-2h3-2--2-0-2h3--2-0-2h3-2----5-5-5-5-6-6-6-6-------
  PM..............                                   PM.............

Guitar 2 (Joins in on 2nd time)
e[--9h12-14-9h12-14-9h12-14----14-8-14h15--14----------------------
B[-----------------------------------------------------------------
G[-----------------------------------------------------------------
D[-----------------------------------------------------------------
A[-----------------------------------------------------------------
D[-----------------------------------------------------------------

Guitar 1 (x2)
e[--------------------------------------------------------------------------
B[--------------------------------------------------------------------------
G[--------------------------------------------------------------------------
D[-4-4-2-4h5-4--4-2-4h5-4--4-2-4h5-4----7-7-7-7-8-8-8-8---------------------
A[-4-4-2-4h5-4--4-2-4h5-4--4-2-4h5-4----7-7-7-7-8-8-8-8---------------------
D[-4-4-2-4h5-4--4-2-4h5-4--4-2-4h5-4----7-7-7-7-8-8-8-8---------------------
                                      PM...............

Guitar 2 (Again, joins in on 2nd time)
e[--11h14-16-11h14-16-11h14-16----16-10-16h17-16------------------
B[----------------------------------------------------------------
G[----------------------------------------------------------------
D[----------------------------------------------------------------
A[----------------------------------------------------------------
D[----------------------------------------------------------------

Repeat the whole thing two or three times, and then Guitar 1 ends on this....
e[------------------------------------------------------------
B[------------------------------------------------------------
G[------------------------------------------------------------
D[--------------------0h2-------7-6-5~~~~~---x-0-2------------
A[--5-5-5-5-6-6-6-6---0h2-------7-6-5~~~~~---x-0-2------------
D[--5-5-5-5-6-6-6-6---0h2-2-2---7-6-5~~~~~---x-0-2------------
  PM...............      PM..

You'd have to hear it for timing.  This is really cool stuff.  Have fun learning it.


Текст, аккорды и табулатура для песни "Celebrity Deathmatch Theme", исполняет "Misc Television".
Используемые в песне аккорды можно найти в разделе Как брать аккорды. Аккорды для шестиструнной гитары. Другие песни можно найти на нашем сайте, воспользовавшись алфавитным указателем вверху страницы.


 
Ошибка в тексте? Выделите ошибку и нажмите Ctrl+Enter