BUFFY 
e-|-----------------------------------------------------------------| 
B-|-----------------------------------------------------------------| 
G-|-----------------------------------------------------------------| 
D-|------------4--5-------------------------------4-----------------| 
A-|-7---------------5---------------5----------7----5---------------| 
E-|-----------------------------------------------------------------| 
E5 G Bm D 
e-|-----------------------------------------------------------------| 
B-|---------------------------------3---------------7---------------| 
G-|-----------------4---------------4---------------7---------------| 
D-|-2---------------5---------------4---------------7---------------| 
A-|-2---------------5---------------2---------------5---------------| 
E-|-0---------------3-----------------------------------------------| 
e-|-----------------------------------------------------------------| 
B-|-----------------------------------------------------------------| 
G-|-----------------------------------------------------------------| 
D-|------------4--5-------------------------------4-----------------| 
A-|-7---------------5---------------5----------7----5---------------| 
E-|-----------------------------------------------------------------| 
E5 G5 B5 D5 
e-|-----------------------------------------------------------------| 
B-|-----------------------------------------------------------------| 
G-|---------------------------------4-4-4-4-4-4-4-4-7-7-7-7-7-7-7-7-| 
D-|-2-2-2-2-2-2-2-2-5-5-5-5-5-5-5-5-4-4-4-4-4-4-4-4-7-7-7-7-7-7-7-7-| 
A-|-2-2-2-2-2-2-2-2-5-5-5-5-5-5-5-5-2-2-2-2-2-2-2-2-5-5-5-5-5-5-5-5-| 
E-|-0-0-0-0-0-0-0-0-3-3-3-3-3-3-3-3---------------------------------| 

PART II (interlude) 
e-|-------------------------------------------------| 
B-|-------------------------------------------------| 
G-|-------------------------------------------------| 
D-|-7------7/9----75--------------4----------------| 
A-|-------------------------------------------------| 
E-|-------------------------------------------------| 
Am Em B 
e-|-------------------------------------------------|
B-|-1-------------------------------4---------------| 
G-|-2---------------0---------------4---------------| 
D-|-2---------------2---------------4---------------| 
A-|-0---------------2---------------2---------------| 
E-|-----------------0-------------------------------|

PART III (punk) 
e-|-7-7-7-7-10--12--7-7-7-7-10--12--5-5-5-5-5-7--10-5-5-5-5-5-5-5-5-|
B-|-----------------------------------------------------------------| 
G-|-----------------------------------------------------------------| 
D-|-----------------------------------------------------------------| 
A-|-----------------------------------------------------------------| 
E-|-----------------------------------------------------------------| 
E5 G5 B5 D5 
e-|-----------------------------------------------------------------| 
B-|-----------------------------------------------------------------| 
G-|---------------------------------4-4-4-4-4-4-4-4-7-7-7-7-7-7-7-7-| 
D-|-2-2-2-2-2-2-2-2-5-5-5-5-5-5-5-5-4-4-4-4-4-4-4-4-7-7-7-7-7-7-7-7-| 
A-|-2-2-2-2-2-2-2-2-5-5-5-5-5-5-5-5-2-2-2-2-2-2-2-2-5-5-5-5-5-5-5-5-| 
E-|-0-0-0-0-0-0-0-0-3-3-3-3-3-3-3-3---------------------------------| 
e-|-6-6-6-6-6-6-6-6-| 
B-|-----------------| 
G-|-----------------| 
D-|-----------------| 
A-|-----------------| 
E-|-----------------| 
D#5 
e-|-----------------|
B-|-----------------|
G-|-8-8-8-8-8-8-8-8-|
D-|-8-8-8-8-8-8-8-8-| 
A-|-6-6-6-6-6-6-6-6-| 
E-|-----------------| 

PART IV (end) 
e-|-7-------7-----------------------| 
B-|---------------------------------| 
G-|---------------------------------| 
D-|-----------------2---------------| 
A-|-----------------2---------------| 
E-|-----------------0---------------| 
E5 E5 
e-|---------------------------------|
B-|---------------------------------| 
G-|-9-------9-------9---------------| 
D-|-9-------9-------9---------------| 
A-|-7-------7-------7---------------| 
E-|---------------------------------| 


Текст, аккорды и табулатура для песни "Buffy Theme", исполняет "Misc Television".
Используемые в песне аккорды можно найти в разделе Как брать аккорды. Аккорды для шестиструнной гитары. Другие песни можно найти на нашем сайте, воспользовавшись алфавитным указателем вверху страницы.


 
Ошибка в тексте? Выделите ошибку и нажмите Ctrl+Enter