BLACKADDER

THIS IS THE WAY IT IS PLAYED:
|--0--5--0--5--0--5--9--11--7--10--7--10--9--5--5--4--4-----|
|-----------------------------------------------------------|
|-----------------------------------------------------------|
|-----------------------------------------------------------|

|--0--5--0--5--0--5--9--11--7--10--7--10--9--7--5--5--4--4-|
|----------------------------------------------------------|
|----------------------------------------------------------|
|----------------------------------------------------------|

|--12--12--9--12--12--7--12--10--9--7--5--12---------|
|----------------------------------------------------|
|----------------------------------------------------|
|----------------------------------------------------|

|--12--12--9--9--5--5--7--9--10--12--12-|
|---------------------------------------|
|---------------------------------------|
|---------------------------------------|

THIS IS WAY I THINK IT MAKES IT SOUND BETTER (YOU DONT HAVE TO PLAY THIS AT ALL)
|--0--5--0--5--0--5--9--11^-7--10--7--10--9--7--5--5--4H5P4-|
|-----------------------------------------------------------|
|-----------------------------------------------------------|
|-----------------------------------------------------------|

|--0--5--0--5--0--5--9--11^-7--10--7--10--9--7--5--5--4H5P4-|
|-----------------------------------------------------------|
|-----------------------------------------------------------|
|-----------------------------------------------------------|

|--12--12--9--12--12--7--12--10--9--7--5--12---------|
|----------------------------------------------------|
|----------------------------------------------------|
|----------------------------------------------------|

|--12--12--9--12--12--7--5--5--7--9--10--12-|
|-------------------------------------------|
|-------------------------------------------|
|-------------------------------------------|


Текст, аккорды и табулатура для песни "Blackadder", исполняет "Misc Television".
Используемые в песне аккорды можно найти в разделе Как брать аккорды. Аккорды для шестиструнной гитары. Другие песни можно найти на нашем сайте, воспользовавшись алфавитным указателем вверху страницы.


 
Ошибка в тексте? Выделите ошибку и нажмите Ctrl+Enter