-Xxxx-------------------------------------------------------------------------
-Xxxx-------10--------8-------------------10--10----------8-7-6---------------
-Xxxx----------9---------7-7--7-9----------------9--------6-5-4---------------
-Xxxx---7---------7-----------------7-7-------------7-------------------------
-Xxxx-------------------------------------------------------------------------
-xxxx-------------------------------------------------------------------------
                                                                              

------------------------------------------------------------------------------
------------------------------------------------------------------------------
------------------------------------------------------------------------------
--777-xx-777-x-7/13--12-----12-777--------------------------------------------
--777-xx-777-x-7/13--12-----12-777--------------------------------------------
--555-xx-555-x-5/11--10-----10-555--------------------------------------------


Текст, аккорды и табулатура для песни "Beavis And Butthead", исполняет "Misc Television".
Используемые в песне аккорды можно найти в разделе Как брать аккорды. Аккорды для шестиструнной гитары. Другие песни можно найти на нашем сайте, воспользовавшись алфавитным указателем вверху страницы.


 
Ошибка в тексте? Выделите ошибку и нажмите Ctrl+Enter