Here's the entire Underscore to the High School Hop, the dance scene with Jonny
Casino, Cha Cha Degregorrio and most of the cast in one place. It's a combination
of the tab and chords, as there are parts where the gutiar part changes to just
chords, then back again. This is how it should be played on stage, so might sound
different to the film (never seen the film so I couldn't comment). I've also
included the cues as to when to change tempo, and the tempo/feel changes too.
Most of it's repeats from earlier songs in the play.

UNDERSCORE: HIGH SCHOOL HOP

PIANO CUE (8 bars)
D7		    Gmaj9	    E7    Cmaj7		D7
|--------------|-----------|-----|-----------|-----------|
|--------------|-----------|-----|-----------|-----------|
|--2--2--2--2--|--------2--|--0--|--0--0--4--|--6--6--4--|
|--------------|--4--4-----|-----|-----------|-----------|
|--------------|-----------|-----|-----------|-----------|
|--------------|-----------|-----|-----------|-----------|
4			5		6	7		8

Gmaj7	 E7	  Cmaj7	 D7			Gmaj7		E7
|-----|-----|-----------|--------------|-----------|--------------|
|--3--|-----|-----------|--------------|-----------|--------------|
|-----|--0--|--4--4--6--|--2--2--0-----|--2--2--2--|--0--0--0--0--|
|-----|-----|-----------|-----------4--|-----------|--------------|
|-----|-----|-----------|--------------|-----------|--------------|
|-----|-----|-----------|--------------|-----------|--------------|
9	10	 11		  12			13		14

A7			D7		Gmaj7		E7
|--------------|-----5--5--|--------5--|--------------|
|--------------|-----------|--6--6-----|--8--8--8--8--|
|--6--4--6--4--|--2--------|-----------|--------------|
|--------------|-----------|-----------|--------------|
|--------------|-----------|-----------|--------------|
|--------------|-----------|-----------|--------------|
15			16		17		18

Cmaj7		    D7		 Gmaj7		 E
|-----------7--|--5--------5--|--------------5--|--7--|
|--8--8--8-----|-----6--6-----|--6-----3--6-----|-----|
|--------------|--------------|-----6-----------|-----|
|--------------|--------------|-----------------|-----|
|--------------|--------------|-----------------|-----|
|--------------|--------------|-----------------|-----|
19			20		 21			22

Cmaj7		 D7		 Gmaj7
|--7--7--7--|--8--------|--------9--13--|-----------|--8--8--7--|
|-----------|-----------|--3--3---------|--8--8--8--|-----------|
|-----------|-----6--4--|---------------|-----------|-----------|
|-----------|-----------|---------------|-----------|-----------|
|-----------|-----------|---------------|-----------|-----------|
|-----------|-----------|---------------|-----------|-----------|
23		 24		 25			26		27

D7		    Gmaj7		 C7		 Gmaj7    faster
|--5-----------|--------------|-----------|--------|-----|
|--------------|--------------|-----------|--------|-----|
|-----2--0-----|--0--0--------|--2--2--0--|--0--0--|--0--|
|-----------4--|--------4--4--|-----------|--------|-----|
|--------------|--------------|-----------|--------|-----|
|--------------|--------------|-----------|--------|-----|
28			29		 30		 31	    32

enter Cha-Cha and Kenickie

C, F, G  (33-36)
C, F, G, C, F, C, G7  (37-40)
C, F, G  (41-44)
C, F, G, C, F, C7  (45-48)
F, A  (49-52)
D, D7, G7  (53-56)
C, F, G7 (repeat for safety), C, G7  (57-60)

				Marty: I had a hickey on my neck
C	    C			piano cue (63 to 65 incl)
|--1--3--|--1----------|
|--------|----------6--|
|--------|-------0-----|
|--------|-----4-------|
|--------|-------------|
|--------|-------------|
61	    62

				 D       G		 A             G
|-----------------------|-----------------|-----------------|
|-----------------------|-----------------|-----------------|
|--2--2--2--2--2--2--2--|--------0--------|--2-----2--0--0--|
|-----------------------|--4--0-----2--2--|-----4-----------|
|-----------------------|-----------------|-----------------|
|-----------------------|-----------------|-----------------|
66				 67			68

D        G		 A		   G   D	   G		 A		  B7
|-----------------|-----------------|-----------------|---------------|
|-----------------|-----------------|-----------------|---------------|
|--------0--------|--2-----2--0--0--|--------0--------|--2-----2--4--4|
|--4--0-----2--2--|-----4-----------|--4--0-----2--2--|-----4---------|
|-----------------|-----------------|-----------------|---------------|
|-----------------|-----------------|-----------------|---------------|
69			 70			 71			 72

E		A   E		  A7		 D		   G
|--------------|--------------------|-----------------------|
|--------------|--------------4--6--|--2--2-----------------|
|--1-----2--2--|--1-----2--2--------|--------2--4--4--4--4--|
|-----2--------|-----2--------------|-----------------------|
|--------------|--------------------|-----------------------|
|--------------|--------------------|-----------------------|
73		    74			 75

A		 B7			Em7      A7			D  A7
|--------------------------|-----------------------|-----|
|--------------------------|-----------------------|-----|
|--2--4--2-----------0--2--|--4--4--2--2--4--2-----|-----|
|-----------0--0--0--------|--------------------0--|--0--|
|--------------------------|-----------------------|-----|
|--------------------------|-----------------------|-----|
76				    77			    78


D	   G		 E7        A7
|-----------------|-----------------------|
|-----------------|-----------------------|
|--2--2--4--4--4--|--4--4--4--2--4--2-----|
|-----------------|--------------------3--|
|-----------------|-----------------------|
|-----------------|-----------------------|
79			 80				 

D	   G		 E7        A7
|-----------------|-----------------------|
|-----------------|-----------------------|
|--2--2--4--4--4--|--4--4--4--2--4--2-----|
|-----------------|--------------------0--|
|-----------------|-----------------------|
|-----------------|-----------------------|
81			 82

D
|--------------------|-----------------|--------------------|
|--------------------|-----------------|--------------------|
|--------0-----------|--2-----2--0--0--|--------0-----------|
|--0--4-----4--2--2--|-----4-----------|--0--4-----4--2--2--|
|--------------------|-----------------|--------------------|
|--------------------|-----------------|--------------------|
83			    84		    85

D			D       G			A        B7
|-----------------|--------------------|-----------------|
|-----------------|--------------------|-----------------|
|--2-----2--0--0--|--------0-----------|--2-----2--4--4--|
|-----4-----------|--0--4-----4--2--2--|-----4-----------|
|-----------------|--------------------|-----------------|
|-----------------|--------------------|-----------------|
86			 87			    88

E		A   E             A7		D
|--------------|-----------------------|----------------------|
|--------------|-----------------------|--3--3----------------|
|--0-----2--2--|--0-----0--2--2--4--5--|--------2--4--4--4----|
|-----2--------|-----2-----------------|----------------------|
|--------------|-----------------------|----------------------|
|--------------|-----------------------|----------------------|
89			90				91

							Roger: Are you crippled?
A		  B7		    Em7	A7		D
|--------------------------|--------------------|-----|
|--------------------------|--------------------|-----|
|--2--4--2-----------0--2--|--4--4--2--2--4--2--|-----|
|-----------4--4--4--------|--------------------|--0--|
|--------------------------|--------------------|-----|
|--------------------------|--------------------|-----|
92					93			94

C, Am, F, G7*8


Текст, аккорды и табулатура для песни "Underscore To High School Hop", исполняет "Misc Soundtrack".
Используемые в песне аккорды можно найти в разделе Как брать аккорды. Аккорды для шестиструнной гитары. Другие песни можно найти на нашем сайте, воспользовавшись алфавитным указателем вверху страницы.


 
Ошибка в тексте? Выделите ошибку и нажмите Ctrl+Enter