THE GOOD, THE BAD, AND THE UGLY THEME

e|---0---0--------------|---0---0--------------|
B|-0---0---0v-----------|-0---0---0v---------3-|
G|--------------0--2----|--------------0--2----|
D|--------------------2-|----------------------|
A|----------------------|----------------------|
E|----------------------|----------------------|

e|---0---0-----------------|---0---0--------------|
B|-0---0---0v--------------|-0---0---0v-----------|
G|--------------0v---------|--------------2-------|
D|-------------------4-2-0-|-----------------2-2v-|
A|-------------------------|----------------------|
E|-------------------------|----------------------|

e|----12----12-----------------|----12----12------------------|
B|-12----12----12v-------------|-12----12----12v-----------15-|
G|-------------------12--14--9-|-------------------12--14-----|
D|-----------------------------|------------------------------|
A|-----------------------------|------------------------------|
E|-----------------------------|------------------------------|

e|----12----12---------------------|----12----12-----------------|
B|-12----12----12v-----------------|-12----12----12v---9---------|
G|-------------------12v---11-9----|----------------------10-10v-|
D|------------------------------12-|-----------------------------|
A|---------------------------------|-----------------------------|
E|---------------------------------|-----------------------------|

...and repeat


Текст, аккорды и табулатура для песни "The Good The Bad And The Ugly Theme", исполняет "Misc Soundtrack".
Используемые в песне аккорды можно найти в разделе Как брать аккорды. Аккорды для шестиструнной гитары. Другие песни можно найти на нашем сайте, воспользовавшись алфавитным указателем вверху страницы.


 
Ошибка в тексте? Выделите ошибку и нажмите Ctrl+Enter