Ninja turtles theme song : 2 ways

First way : sounds right and is easier
-----------------------------------------------------------------------------
------35-35-35-35-335--57-57-57-57-557--79-79-79-79-779--9999-79p-999--------
-----------------------------------------------------------------------------
-----------------------------------------------------------------------------
P=pull up


Second way : this way sounds better
-------------------------------------35-35-35-35-335---3333-35p-333----------
-------------------35-35-35-35-335-------------------------------------------
--35-35-35-35-335------------------------------------------------------------
-----------------------------------------------------------------------------

thats it enjoy!


Текст, аккорды и табулатура для песни "Teenage Mutants Ninja Turtles Theme", исполняет "Misc Soundtrack".
Используемые в песне аккорды можно найти в разделе Как брать аккорды. Аккорды для шестиструнной гитары. Другие песни можно найти на нашем сайте, воспользовавшись алфавитным указателем вверху страницы.


 
Ошибка в тексте? Выделите ошибку и нажмите Ctrl+Enter