-------------------------------------------------------------------------------
			     IMPERIAL MARCH - Star Wars
-------------------------------------------------------------------------------

composed by John Williams

Intro:
G|---------------------------------------------------------------------------|
D|--5-5-5-5-5-5-------5-5-5-5-5-5-------5-5-5-5-5-5-------5-5-5-5-5-5--------|
A|--------------6-6-6-------------6-6-6-------------6-6-6-------------6-6-6--|
E|---------------------------------------------------------------------------|

Main Theme:
G|---------------------7-7-7-7-8-----------12-0-0-12-11-10-9-8-9-------------|
D|--5-5-5-5---8-5--8-5-----------8-----8-5-----------------------8-13-12-11--|
A|----------6----6-----------------9-6---------------------------------------|
E|---------------------------------------------------------------------------|

G|------------------------7-12-0-0-12-11-10-9-8-9----------------------------|
D|--10-9-10---5---5-8-5-8-------------------------8-13-12-11-10-9-10---5-----|
A|----------6---6----------------------------------------------------6-------|
E|---------------------------------------------------------------------------|

G|----------------|
D|----8-5---8-5---|  
A|--6-----6-------|
E|----------------|
 Repeat intro and main theme twice.


Текст, аккорды и табулатура для песни "Star Wars Imperial March Theme", исполняет "Misc Soundtrack".
Используемые в песне аккорды можно найти в разделе Как брать аккорды. Аккорды для шестиструнной гитары. Другие песни можно найти на нашем сайте, воспользовавшись алфавитным указателем вверху страницы.


 
Ошибка в тексте? Выделите ошибку и нажмите Ctrl+Enter