Book of Mormon Stories

Album: Singles Ward Soundtrack
Tabbed By: Matt Willie


Intro: Clean
/--------------------------------------------------/
/--------------------------------------------------/
/--------------------------------------------------/
/-------------------------------5-Let Ring---------/ X4
/--2/3---2--2-2-2----2/3---2--2-5------------------/
/------3-0--0-0-0--------3-0--0--------------------/
 
Intro Part 2: Heavy Distortion
/--------------------------------------------------/
/--------------------------------------------------/
/--------------------------------------------------/
/--5-5-0----5-5-0----5-5-0--2----------------------/ X5  
/--5-5-0----5-5-0----5-5-0--2-Let Ring-------------/
/--3-3-0----3-3-0----3-3-0--0----------------------/


 Intro Part 3: Heavy Distortion
/--------------------------------------------------/
/--------------------------------------------------/
/--4-----------------------------------------------/
/--4-5-4-5--2-2-2-4-2-2-2-0-2----------------------/
/--2-5-4-5--2-2-2-4-2-2-2-0-2-Let Ring-------------/
/----3-2-3--0-0-0-2-0-0-0-0-0----------------------/

/--------------------------------------------------/
/--------------------------------------------------/
/--4-----------------------------------------------/
/--4-5-4-5--2-2-2-4-2-2-2-0-2----------------------/
/--2-5-4-5--2-2-2-4-2-2-2-0-2-Let Ring-------------/
/----3-2-3--0-0-0-2-0-0-0-0-0----------------------/

/--------------------------------------------------/
/--------------------------------------------------/
/--------------------------------------------------/
/--5-x-x-2-0-x-x-2-5-x-x-2-5-----------------------/
/--5-x-x-2-0-x-x-2-5-x-x-2-5-Let Ring--------------/
/--3-x-x-0-0-x-x-0-3-x-x-0-3-----------------------/

/--------------------------------------------------/
/--------------------------------------------------/
/--2---2---------2-4-------------------------------/
/--2-2-2--5-2-5--2-4-2-----------------------------/
/--0-2-0--5-2-5--0-2-2-Let Ring--------------------/
/----0----3-0-3------0-----------------------------/

 Verse 1: Heavy Distortion
/--------------------------------------------------/
/--------------------------------------------------/
/--4/---------------4/-----------------------------/
/--4/5--2--2-2-2----4/5--2--2-5--------------------/
/--2/5--2--2-2-2----2/5--2--2-5-Let Ring-----------/
/----3--0--0-0-0------3--0--0-3--------------------/

/--------------------------------------------------/
/--------------------------------------------------/
/--------------------------------------------------/
/--5-x-x-2-0-x-x-2-5-x-x-2-5-----------------------/
/--5-x-x-2-0-x-x-2-5-x-x-2-5-Let Ring--------------/
/--3-x-x-0-0-x-x-0-3-x-x-0-3-----------------------/

/--------------------------------------------------/
/--------------------------------------------------/
/--2---2---------2-4-------------------------------/
/--2-2-2--5-2-5--2-4-2-----------------------------/
/--0-2-0--5-2-5--0-2-2-Let Ring--------------------/
/----0----3-0-3------0-----------------------------/

 Interlude Thing:
 PM...............................................
/--------------------------------------------------/
/--------------------------------------------------/
/--4-----------------------------------------------/
/--4-5-4-5--2-2-2-4-2-2-2-0-2----------------------/
/--2-5-4-5--2-2-2-4-2-2-2-0-2----------------------/
/----3-2-3--0-0-0-2-0-0-0-0-0----------------------/
 
 Verse 2: Heavy Distortion
/--------------------------------------------------/
/--------------------------------------------------/
/--4/---------------4/-----------------------------/
/--4/5--2--2-2-2----4/5--2--2-5--------------------/
/--2/5--2--2-2-2----2/5--2--2-5-Let Ring-----------/
/----3--0--0-0-0------3--0--0-3--------------------/

/--------------------------------------------------/
/--------------------------------------------------/
/--------------------------------------------------/
/--5-x-x-2-0-x-x-2-5-x-x-2-5-----------------------/
/--5-x-x-2-0-x-x-2-5-x-x-2-5-Let Ring--------------/
/--3-x-x-0-0-x-x-0-3-x-x-0-3-----------------------/

/--------------------------------------------------/
/--------------------------------------------------/
/--2---2---------2-4-------------------------------/
/--2-2-2--5-2-5--2-4-2-----------------------------/
/--0-2-0--5-2-5--0-2-2-Let Ring--------------------/
/----0----3-0-3------0-----------------------------/

Outro: Heavy Distortion
/--------------------------------------------------/
/--------------------------------------------------/
/--------------------------------------------------/
/--5-5-0----5-5-0----5-5-0--2----------------------/ X4  
/--5-5-0----5-5-0----5-5-0--2-Let Ring-------------/
/--3-3-0----3-3-0----3-3-0--0----------------------/

Outro Part 2: Clean
/--------------------------------------------------/
/--------------------------------------------------/
/--------------------------------------------------/ Play
/-------------------------------5-Let Ring---------/ Until
/--2/3---2--2-2-2----2/3---2--2-5------------------/ End
/------3-0--0-0-0--------3-0--0--------------------/

This is an awsome song, and is fun to play, SO LEARN IT!
If you have any remarks, mail me at [email protected]


Текст, аккорды и табулатура для песни "Singles Ward Theme - Book Of Mormon Stories", исполняет "Misc Soundtrack".
Используемые в песне аккорды можно найти в разделе Как брать аккорды. Аккорды для шестиструнной гитары. Другие песни можно найти на нашем сайте, воспользовавшись алфавитным указателем вверху страницы.


 
Ошибка в тексте? Выделите ошибку и нажмите Ctrl+Enter