Silent Hill intro theme
b-bend
h-hammer on
^-let ring
()-harmonics
/slide

Riff 1: Guitar 1: (or rather mandolin)

---------------------------------------------------------------------------------
--------------------------------------------------------------------------------
---------------------------------------------------------------------------------
---------------------------------------------------------------------------------
---------------------------------------------------------------------------------    x2
---7777777-6666666-5555555-6666666---------------------------------

meanwhile the 2nd mandolin does something like this
---------------------------------------------------------------------------------
---------------------------------------------------------------------------------
------9-------8--------9-10---9-----------------------------------------------   x2
----9---9-------8—9-------9--------------------------------------------------
--7---------6---------------------7---------------------------------------------

then mandolin 1
---------------------------------------------------------------------------------
---------------------------------------------------------------------------------
---------------------------------------------------------------------------------
---------------------------------------------------------------------------------
----7-8888888-101010-5555--33-55---------------------------------------  then go back into
---------------------------------------------------------------------------------   riff 1 of guitar 1

mandolin 2 does this
---------------------------------------------------------------------------------
---------------------------------------------------------------------------------
------8------------9-------8----7----------------------------------------------  then back to first 
--------8---9--------9-------8---7--------------------------------------------- part
----6----------7--------6-------------------------------------------------------

riff 2
Guitar one 

---------------------------------------------------------------------------------
---------------------------------------------------------------------------------
---------------------------------------------------------------------------------
--------------------5h7-5-4-0-----------5h7-5-4-12-------------------------
--2-2-2-2-b3^-----------------2222b3---------------------------------------


meanwhile guitar 2 does this
---------------------------------------------------------------------------------
---------------------------------------------------------------------------------
---------------------------------------------------------------------------------
---------------------------------------------------------------------------------  on and on until
---------------------------------------------------------------------------------  the second 5h7 line
---0-1-2-0-2-3-(5)-------------------------------------------------------------


then
---------------------------------------------------------------------------------
---------------------------------------------------------------------------------
---------------------------------------------------------------------------------
---------------------------------------------------------------------------------
-----2/4-444-99--------------------------------------------------------------
---------------------------------------------------------------------------------

now you start riff 2 over but with a third guitar/mandolin/piano playing this 

----------------------------------------------------------------------------------------
---------------------------------------------------------------------------------
---------------------------------------------------------------------------------
---------------------------------------------------------------------------------
--2/4-444-9-7-5-4------------------------------------------------------------
---------------------------------------------------------------------------------

riff 3/solo

---------------------------------------------------------------------------------------------------------
----------------------------------------------------------------------------------------------------------
----------------------------------------------------------------------------------------------------------
----------------------------------------------------------------------------------------------------------
--777777-55-77777--1010---777777-55-33---777777-55-77777-1010--12------------------
---------------------------------------------------------------------------------------------------------

then


---------------------------------------------------------------------------------
---------------------------------------------------------------------------------
---------4--------5----------4--------7----------------------------------------- repeat about 6 times
------4---4----5---5-----4----4---7---7---------------------------------------
---2--------3----------2----------5---------------------------------------------


---------------------------------------------------------------------------------
---------------------------------------------------------------------------------
---------------------------------------------------------------------------------
---------------------------------------------------------------------------------  x2
--------------------888888-77777--888-7-5---888888-777777-5555---
---------------------------------------------------------------------------------

I don’t know about the background, its just like the james bond sounding beginning of this part

---------------------------------------------------------------------------------
----------------------------------------------------------------------------------
---------------------------------------------------------------------------------
--------------------------------------------------------------------------------- 
--------------------------------888888--1212-1010-888-444-55-777----
-------------------------------------- ------------------------------------------

this is really just repeated in variation throughout the rest of the song, though the violin part sounds like this

---------------------------------------------------------------------------------
---------------------------------------------------------------------------------
---------------------------------------------------------------------------------
---------------------------------------------------------------------------------
------8888-101010-888-77--------------------------------------------------
---------------------------------------------------------------------------------

then the violin plays that, and the original 1st riff is played along with the solo

that’s about it, some is probably wrong, it was all tabbed out by ear. So you can buy the correct sheet music and tab that, or you can email me at [email protected]


Текст, аккорды и табулатура для песни "Silent Hill Theme", исполняет "Misc Soundtrack".
Используемые в песне аккорды можно найти в разделе Как брать аккорды. Аккорды для шестиструнной гитары. Другие песни можно найти на нашем сайте, воспользовавшись алфавитным указателем вверху страницы.


 
Ошибка в тексте? Выделите ошибку и нажмите Ctrl+Enter