-----------------------------------------------------------------
----------1---------------1---------------1---------------0------
--------------------------------------0-------0-------0-------0--
------2-------2-------3-------3-------------------0--------------
--0---------------0---------------3------------------------------
----------------------------------------------------------------- x4

(Drums enter the third time. Guitar two enters during the end of the fourth
 time, while the background riff continues.)

|----------------------------------------------------------------
|-------------------------------------------------------------15-
|*---------------------------------------------------------------
|*---------------------------------------------------------------
|----------------------------------------------------------------
|----------------------------------------------------------------

 -------------------------------15-------------------------------
 -17-------------------------------------------------------------
 -----------------------------------17------------------------14-
 ----------------------------------------------------------------
 ----------------------------------------------------------------
 ----------------------------------------------------------------

 -12-------------------------------------------------------------
 -------------------------------13-------------------------------
 ------------------------------------12--------------------------
 ----------------------------------------------------------------
 ----------------------------------------------------------------
 ----------------------------------------------------------------

 ----------------------------------------------------------------
 ----------------------------------------------------------------
 -------/12-12-12--10-9-9~~~~~~~-------------------------------
 ---------------------------------------------12-12/14-1410-10--
 ----------------------------------------------------------------
 ----------------------------------------------------------------

 -------------------------------------------------------------------
 --------------------------------------------/13-13-13--------------
 -------/12-12-12/14-12---------------------------------1612-129--
 -------------------------------------------------------------------
 -------------------------------------------------------------------
 -------------------------------------------------------------------

 ----------------------------------------------------------------
 ----------------------------------------------------------------
 -------/12-12-12--10-9-9~~~~~~~-------------------------------
 ---------------------------------------------12-12/14-1410-10--
 ----------------------------------------------------------------
 ----------------------------------------------------------------

 ------------------------------------------------------------
 --------------------------------------------/13-13-13-12-12-
 ---------/12-12-12/14-12------------------------------------
 ------------------------------------------------------------
 ------------------------------------------------------------
 ------------------------------------------------------------

 (Guitar one tacit.)

 ------------------------------------------------
 -/13---12------12-13-13/15-------13-12---13-12-
 ----------14------------------------------------
 ------------------------------------------------
 ------------------------------------------------
 ------------------------------------------------

 -----------------------------------------------
 ---------12-13-13-12-13-13/15---13-15---15/17--
 --14-------------------------------------------
 -----------------------------------------------
 -----------------------------------------------
 -----------------------------------------------

 -----------------------------------------------
 -13--12------12-13-13/15-------13-12---13-12-
 ---------14------------------------------------
 -----------------------------------------------
 -----------------------------------------------
 -----------------------------------------------

 -----------------------------------------------
 ---------12-13-13-12-13-13/15---13-15---15/17--
 --14-------------------------------------------
 -----------------------------------------------
 -----------------------------------------------
 -----------------------------------------------

 1.____[end_of_first_time]_______________________________________
 |
 (Background riff returns.)
 ----------------------------------------------------------------|
 ----------------------------------------------------------------|
 --14~~~~~~~~~~~~~~~~~~~~~~~~~~~~~~~~~~~~~~~~~~~~~--------------*|
 ---------------------------------------------------------------*|
 ----------------------------------------------------------------|
 ----------------------------------------------------------------|

  2.____[end_of_second_time]_____________________________________
  |  E5
G1|--------------------------------------------------------------
U |--------------------------------------------------------------
I |--------------------------------------------------------------
T |--2--2--2-----------------------------------------------------
A |--2--2--2-----------------------------------------------------
R |--0--0--0-----------------------------------------------------
  |
  |                                          Em
G3|--------------------------------------3---0-------------------
U |------------------------------------0-----0-------------------
I |------------------------------------------0-------------------
T |------------------------------------------2-------------------
A |--------------------------------------------------------------
R |--------------------------------------------------------------


     E5
G1|--------------------------------------------------------------|
U |--------------------------------------------------------------|
I |--------------------------------------------------------------|
T |--2--2--2-----------------------------------------------------|
A |--2--2--2-----------------------------------------------------|
R |--0--0--0-----------------------------------------------------|
  |                                                              |
  |                                          Em                  |
G3|--------------------------------------3---0-------------------|
U |------------------------------------0-----0-------------------|
I |------------------------------------------0-------------------|
T |------------------------------------------2-------------------|
A |--------------------------------------------------------------|
R |--------------------------------------------------------------| x2

     E5
G1|---------------------------------------------
U |---------------------------------------------
I |---------------------------------------------
T |--2--2--2------------------------------------
A |--2--2--2------------------------------------
R |--0--0--0------------------------------------
  |
  |                                          Em
G3|--------------------------------------3---0--
U |------------------------------------0-----0--
I |------------------------------------------0--
T |------------------------------------------2--
A |---------------------------------------------
R |---------------------------------------------


(Guitar one tacit. Guitar two returns.)

G2|--------------------------------------------
U |--------------------------------------------
I |--------------------------------------9--11-
T |-----------------------------------9--------
A |--------------------------------------------
R |--------------------------------------------
  |
  | Cmaj7
G3|------------0-------------------------------
U |---0--------------0--0--0--0--0--0--0--0--0-
I |---------------0-----0--0--0--0--0--0--0--0-
T |---------------------2--2--2--2--2--2--2--2-
A |-/3------------------------3--3--3--3--3--3-
R |--------------------------------------------
    let ring..........  


Текст, аккорды и табулатура для песни "Silent Hill - promise", исполняет "Misc Soundtrack".
Используемые в песне аккорды можно найти в разделе Как брать аккорды. Аккорды для шестиструнной гитары. Другие песни можно найти на нашем сайте, воспользовавшись алфавитным указателем вверху страницы.


 
Ошибка в тексте? Выделите ошибку и нажмите Ctrl+Enter