miscanellous
Secret of mana's opening theme


e--------------------------------------------
a--------------------------------------------
d----7---------------7-----7-----------------
g--9---12--5--7--7-9---4-9---12-5-7-9-7-5-7-9

e-----------------------------------------------
a------------------------------------------------
d----10------------12---10-------8---5----------
g-10----14-10-12-9----9----5-8-5---5---3-5-------


tabbed by RG callaghan (sorry for inversions of strings:p )
enjoy!!
[email protected]


Текст, аккорды и табулатура для песни "Secret Of Manas Opening Theme", исполняет "Misc Soundtrack".
Используемые в песне аккорды можно найти в разделе Как брать аккорды. Аккорды для шестиструнной гитары. Другие песни можно найти на нашем сайте, воспользовавшись алфавитным указателем вверху страницы.


 
Ошибка в тексте? Выделите ошибку и нажмите Ctrl+Enter