Here is a dodgy peice of work that sounds amazing. This is usualy played
on the bass then the electric comes i but who cares. It sounds amazing when
you down tune it a whole step but i can't be pissed.

Intro

e:]---------------------------    -------------------------[
B:]---------------------------    -------------------------[
G:]---------------------------    -------------------------[
D:]---------------------------    -------------------------[
A:]--4567-----4567-----7654--2 X2 /------------------------[
E:]------7--0-----7--0------2-    /------------------------[



Fast bit(Verse thing)WHATEVER
Part A


e:]--------------------------------------------------------[
B:]--------------------------------------------------------[
G:]-----------------5p4--43-32-0-------------------------[
D:]---------4h5---4h5---5---------2-0h2--------------------[
A:]--4h5-6h7---5h7-----7-----------------------------------[
E:]--------------------------------------------------------[

You don't have to use hammer ons or pick offs it's just easier, sounds a lot
better and is the proper way of doing it ( unless you have a bass then it's
probably done without all the hammer ons and pick offs.

Part B

e:]--------------------------------------------------------[
B:]--------------------------------------------------------[
G:]-----------------5p4--87b-32-0------------------------[
D:]--------4h5---4h5----5----------2-0h2-------------------[
A:]--4h5-6h7--5h7-----7------------------------------------[
E:]--------------------------------------------------------[

don't use bend if you dont want to but like i said earlier it sounds a lot better
and b= bend for full not half other wise it sounds bad ( trying my hardest not to
swear)

Solo bit

e:]------0--------------------------------------------------
B:]--------3-0----------------------------------------------
G:]------------2-0---3p2-3p2-3p2-3p2-0----------------------
D:]----------------2------------------2-0h2-2---------------
A:]--4567---------------------------------------------------
E:]---------------------------------------------------------

You don't have to do the: D:]--2-0h2-2-[

You can go like this:     D:]--2-0h2-[
but I think it only does that after the bass bit or
verse but it dosen't matter.

Chords during intro

a heavly muted G5 like on all my life by foo fighters

e:]------------------------------------------------------------
B:]------------------------------------------------------------
G:]------------------------------------------------------------
D:]-5-5-5-5-5-5-5-5-5-5-5-5-5-5-5-5----------------------------
A:]-5-5-5-5-5-5-5-5-5-5-5-5-5-5-5-5----------------------------
E:]-3-3-3-3-3-3-3-3-3-3-3-3-3-3-3-3----------------------------
    1 e + a 2 e + a 3 e + a 4 e + a

Chords During fast bit

F#major / A / B#major

I can't be bothered to tab out the strumming pattern so just try
and work it out the order to

Chords during solo

It's not hard to work these out. If you think carefuly most of the notes are from
the E minor pentatonic scale so just play minor a few times. What i do is play it
once then mute it. 

Thanx My name is Sam smith and are band rock totally (2 guitars i'm lead
guitarist, vocalist, bass and drums.)


Текст, аккорды и табулатура для песни "Pink Panther Theme", исполняет "Misc Soundtrack".
Используемые в песне аккорды можно найти в разделе Как брать аккорды. Аккорды для шестиструнной гитары. Другие песни можно найти на нашем сайте, воспользовавшись алфавитным указателем вверху страницы.


 
Ошибка в тексте? Выделите ошибку и нажмите Ctrl+Enter