Linus and Lucy composed by Vince Guaraldi tabbed by Jeffrey Henry, Ok this is a 
wierd one, Its the song from Penuts, you know, Charlie Brown. Anyways it can either
be played two ways. 1 with two basses or a guitar and a bass, one instrument playing 
one part and one instrument playing the other part. Its fun this way and 
it awesome for timeing practice. 2. It can be played on a bass useing a double 
handed tapping method (no strumming or plucking, all tapping with both hands at once).
Ill divide it into 3 sections and in left hand and right hand.
Intro/Section 1/Left hand
G---------------|-------------------------||----------------
D------5------5-|------------------------.||----------------
A----5------5---|-----5--/--7--5--3->-5--.||-X6-------------
E--3------3-----|--3----------------------||----------------

Section 1/Right hand/Pay this at the same time as the low part.
G--12--14--16--16--14--12-|-14--12--|-12-14-16-16-14-12-|-14-12-|| 
D-------------------------|---------|-------------------|-------||
A-------------------------|---------|-------------------|-------||
E-------------------------|---------|-------------------|-------||

Section two/Left hand
G--------------|-------------------|---------------|-------------------||
D------3-----3-|-------------------|------5-----5--|------------------.||
A----3-----3---|----3-/-5-3-1->-3--|----5-----5----|----5-/-7--3->-5--.||
E--1-----1-----|-1-----------------|--3-----3------|--3----------------||
               |                   |               |                   ||
Right hand     |                   |               |                   ||
G--10----12-12-|-------------------|--12----14-14--|-------------------||
D--------------|-------------------|---------------|------------------.||
A--------------|-------------------|---------------|------------------.||
E--------------|-------------------|---------------|-------------------||

Section 3/Left hand
G---------------------|---------------------------||----------------------
D---------12-------12-|--------------------------.||----------------------
A------12-------12----|------12-/-14-12-10->-12--.||----------------------
E--10--------10-------|--10-----------------------||----------------------
                      |                           ||
  Right hand          |                           ||
G--17-17-17-17-17-19--|---------------------------||----------------------
D---------------------|--------------------------.||----------------------
A---------------------|--------------------------.||----------------------
E---------------------|---------------------------||----------------------


Thats it, Just keep trying and youll get it, it took my 6 months :-) 
				[email protected] Jeffrey Henry


Текст, аккорды и табулатура для песни "Linus And Lucy Theme", исполняет "Misc Soundtrack".
Используемые в песне аккорды можно найти в разделе Как брать аккорды. Аккорды для шестиструнной гитары. Другие песни можно найти на нашем сайте, воспользовавшись алфавитным указателем вверху страницы.


 
Ошибка в тексте? Выделите ошибку и нажмите Ctrl+Enter