Jurassic Park Theme.
 Tabbed by Kenny Winningham.
  
Song: Jurassic Park Theme

Key: D major

Note: I've put chords on top of the tab so if you were after the chords instead of the notes, you got 'em.

       D D       D D       D  Em   G
-----------------------------------------
-----------------------------------------
-----------------------------------12-12-
-12-11-12--12-11-12--12-11-12-14-14------
-----------------------------------------
-----------------------------------------

      Em   A(7)    Em    G  F#m  Em       A(7)
---------------------------------------------
---------------------------------------------
-11-----------11---------12-11-11------------
---12-14-11-----12-14--12--------14-14-12-11-
-----------12--------------------------------
---------------------------------------------

The parentheses around the 7 in the A(7) chord means you can play either A or A7. Personally, I play A and it sounds perfect.

       D D       D         D  Em   G
-----------------------------------------
-----------------------------------------
-----------------------------------12-12-
-12-11-12--12-11-12--12-11-12-14-14------
-----------------------------------------
-----------------------------------------

      Em   A(7)   Em  A(7)G  F#m  Em       A(7)
----------------------------------------------
----------------------------------------------
-11----------11-------14--12-11-11------------
---12-14-11----12-14----12--------14-14-12-11-
-----------12---------------------------------
----------------------------------------------

       D    A(7)    D    A(7)       D      D  A(7)
-------------------------------------------------
-------------------------------------------------
-------------------------------------------------
-12-11-12-----12-11-12-----12p11-11h12-----12-11-
---------14-12--------14-12-----------14-12------
-------------------------------------------------

       D    A(7)    D    A(7)       D      D  A(7)D
----------------------------------------------------
----------------------------------------------------
----------------------------------------------------
-12-11-12-----12-11-12-----12p11-11h12-----12-11-12-
---------14-12--------14-12-----------14-12---------
----------------------------------------------------

I hope you find this useful!
Kenny Winningham 
:: Ultimate Guitar Archive :: 
http://www.ultimate-guitar.com 





Текст, аккорды и табулатура для песни "Jurassic Park Theme", исполняет "Misc Soundtrack".
Используемые в песне аккорды можно найти в разделе Как брать аккорды. Аккорды для шестиструнной гитары. Другие песни можно найти на нашем сайте, воспользовавшись алфавитным указателем вверху страницы.


 
Ошибка в тексте? Выделите ошибку и нажмите Ctrl+Enter