e:--------------|-----------|----------|----------|
B:--------------|-----------|----------|----------|
G:--------------|-----------|----------|----------|
D:--------------|-----------|----------|----------|
A:2-------3-----|4-----3----|2----3----|4----3----|
E:--------------|-----------|----------|----------|

e:------------------------|------------------------|------------------------|
B:------------------------|------------------------|------------------------|
G:------------------------|------------------------|------------------------|
D:------------------------|------------------------|------------------------|
A:------------------------|------------------------|------------------------|
E:0--2--2--2--2--0--0--0--|0--3--3--3--3--2--2--2--|0--2--2--2--2--0--0--0--|

e:---------------------|
B:---------------------|
G:---------------------|
D:---------------------|
A:---------------------|
E:0--3--3--3--3--2--1--|

e:------------------|-----------|
B:------------------|-----------|
G:------------------|-----------|
D:1--0--------------|-----------|
A:------------2--0--|2----------|
E:------------------|-----------|

e:-------------------|------------|-----------------|----------|
B:--------4--3-------|------------|-----------------|----------|
G:-------------------|------------|-----------------|----------|
D:2--5------------5--|4--5--------|5--4-------2-----|----------|
A:-------------------|------------|--------2-----4--|4---------|
E:-------------------|------------|-----------------|----------|

e:---------------------|------------------|-----------|
B:---------4--3--------|------------------|-----------|
G:---------------------|------------------|-----------|
D:2--5--------------5--|4--5--------1--2--|2----------|
A:---------------------|---------2--------|-----------|
E:---------------------|------------------|-----------|
  
e:---------------------|-------------------|
B:---------------------|-------------------|
G:---------------------|-------------------|
D:---------------------|-------------------|
A:7--7-----7--9--7--9--|10-10--10-9--7--9--|
E:---------------------|-------------------|
  
e:---------------------|-------------------|
B:---------------------|-------------------|
G:---------------------|-------------------|
D:---------------------|-------------------|
A:7--7-----7--9--7--9--|10-10--10-9--7--9--|
E:---------------------|-------------------|

e:----------------------|-------------------|------------------|-2-------|
B:----------------------|-------------------|------------4--3--|-2-------|
G:----------------------|----------------3--|2-------2---------|-2-------|
D:--------1--0----------|4--3-------0-------|-----3------------|---------|
A:-------------------2--|--------3----------|------------------|---------|
E:0--2------------3-----|-------------------|------------------|---------|


Текст, аккорды и табулатура для песни "James Bond Theme", исполняет "Misc Soundtrack".
Используемые в песне аккорды можно найти в разделе Как брать аккорды. Аккорды для шестиструнной гитары. Другие песни можно найти на нашем сайте, воспользовавшись алфавитным указателем вверху страницы.


 
Ошибка в тексте? Выделите ошибку и нажмите Ctrl+Enter