Artist : Doogie Howser, M.D.
Title : Song From Doogie Howser, M.D.
Uhh : Yeah

G---19--18--16--18--16--14--16--11--14----7--9--11--9--7--7--9---
D----------------------------------------------------------------
A----------------------------------------------------------------
E----------------------------------------------------------------


G---11--9----19--18--16--18--16--14--16--11--14----7--9--11--9---
D----------------------------------------------------------------
A----------------------------------------------------------------
E----------------------------------------------------------------


G---4/7----------------------------------------------------------
D----------------------------------------------------------------
A----------------------------------------------------------------
E----------------------------------------------------------------


uhhh... yeah that 

4/7 = 4 slidey thing to 7 


and if you want to sound pro!!! play this...


G---19--18--16--18--16--14--16--11--14----7--9--11--9--7--7--9---
D---0---0---0---0---0---0---0---0---0-----0--0--0---0--0--0--0---
A----------------------------------------------------------------
E----------------------------------------------------------------


G---11--9----19--18--16--18--16--14--16--11--14----7--9--11--9---
D---0---0----0---0---0---0---0---0---0---0---0-----0--0--0---0---
A----------------------------------------------------------------
E----------------------------------------------------------------


G---4/7----------------------------------------------------------
D---0------------------------------------------------------------
A----------------------------------------------------------------
E----------------------------------------------------------------



ohhhhh yeah! that's bass tab baby!
alrighty... if you've got yourself any questions, then write me
an email here : [email protected]

oh and! this is the greatest song you will ever play...
*alex 


Текст, аккорды и табулатура для песни "Doogie Howser Theme", исполняет "Misc Soundtrack".
Используемые в песне аккорды можно найти в разделе Как брать аккорды. Аккорды для шестиструнной гитары. Другие песни можно найти на нашем сайте, воспользовавшись алфавитным указателем вверху страницы.


 
Ошибка в тексте? Выделите ошибку и нажмите Ctrl+Enter