-----------------------------------------------------|
-------------------5-5-5-6---------------------------|  repeat as necessary
---3-3-3---53---53---------6-------------------------|
---------4---4---------------7-4-10-8----------------|

-----------------------------------------------------|
-------------------5-5-5-6---------------------------|
---3-3-3---53---53---------6-------------------------|
---------4----4--------------7-4-10-8----------------|

this is only the intro.  It is my first tab so it might be wrong.


Текст, аккорды и табулатура для песни "Darth Vader Theme", исполняет "Misc Soundtrack".
Используемые в песне аккорды можно найти в разделе Как брать аккорды. Аккорды для шестиструнной гитары. Другие песни можно найти на нашем сайте, воспользовавшись алфавитным указателем вверху страницы.


 
Ошибка в тексте? Выделите ошибку и нажмите Ctrl+Enter