Memory
 Cowboy Bebop
  Tabbed by SJ ([email protected])
I think the last part is a bit wrong, but it works for me.

-10-13--10------10-13---10-13-16-13-------------- 
----11-------------11----------------14--13------
----10-----10------10------14------------14------
-----------10----------------------------15--16--
-------------------------------------------------
-------------------------------------------------

--------------------------------------- 
----13-13----13-14-13-11--------------- 
-12-------15-13-----------10-------10-- 
-14-----------------------11-11-13-11-- 
------------------------------------8-- 
--------------------------------------- 

------------------------------------------------
---------11-12--14-11--11-14----11--------------
---10-13----10------------13-12-----------------
---11-------12------------11-------11-14-13-11--
-8---------------------------------11-15----11--
------------------------------------------------

-------------- 
-------------- 
-------------- 
-11-14-13-14-- 
-12-13-13-14-- 
--------------


Текст, аккорды и табулатура для песни "Cowboy Bebop - Memory", исполняет "Misc Soundtrack".
Используемые в песне аккорды можно найти в разделе Как брать аккорды. Аккорды для шестиструнной гитары. Другие песни можно найти на нашем сайте, воспользовавшись алфавитным указателем вверху страницы.


 
Ошибка в тексте? Выделите ошибку и нажмите Ctrl+Enter