Miscellaneous 
sports theme 
by bryan belch 

G------------------------------------------ 
D------------------------------------------ 
A-3---0-2-3---0-2-3---0-2-3-----and so on-- 
E---3-------3-------3-------3-------------- 

AND FOR THE GRAND FINALE. . . 

G------------------------------ 
D-------2---2------------------ 
A-0-2-4---4-------------------- 
E------------------------------ 

CHARGE!!!!!!!!! 

im hot and i have a nice butt. thank you. 


Текст, аккорды и табулатура для песни "Charge", исполняет "Misc Soundtrack".
Используемые в песне аккорды можно найти в разделе Как брать аккорды. Аккорды для шестиструнной гитары. Другие песни можно найти на нашем сайте, воспользовавшись алфавитным указателем вверху страницы.


 
Ошибка в тексте? Выделите ошибку и нажмите Ctrl+Enter