Song : Austin Powers Theme
Artist : Misc Soundtrack (what does misc stand for?)
Tabber: Jordan G
Normal Tuning (e b G D A E)

This is the full austin powers theme. If this gets on the site, it'll be my first tab. Have fun, baby yeah.


Trombone Part at the Start
------------------------------------------ X2
------------------------------------------
--------3--------3-----------3------------
------------------------------------------
----1-------1----------1------------------
------------------------------------------

Piano solo
---12--13-----9--12---13--13--13--13-------X2
-----------11------------------------------
------------------------------------------
------------------------------------------
------------------------------------------
------------------------------------------

End with this part
------13--13---13---13---13---13---13--13------13-
--------------------------------------------------
------------------------------------------10------
--------------------------------------------------
--------------------------------------------------
--------------------------------------------------

Main Theme
------------------9---9---6---6-----------
-------------6-------------------------X8
------------------------------------------
------------------------------------------
------------------------------------------
------------------------------------------

Variation
----------------9----6----9---9-------------
-----------6--------------------------------X2
------------------------------------------
------------------------------------------
------------------------------------------
------------------------------------------

End with this
------------------------------------------
------------------------------------------
-------------14---14----------------------
-------15---------------15----------------
------------------------------------------
------------------------------------------

Then this fill
---------13-------------------------------X3
----15--------13h15p13--11------13--11---
-----------------------------12-----------
------------------------------------------
------------------------------------------
------------------------------------------

Ending
----------------------------10--11--12-13-
---------------10h11h12-------------------
----9h10h11-------------------------------
------------------------------------------
------------------------------------------
------------------------------------------
(This part is really fast so don't worry if u don't get it

Repeat as many times as you want

There you go. Email me any corrections or other info at [email protected]


Текст, аккорды и табулатура для песни "Austin Powers Theme", исполняет "Misc Soundtrack".
Используемые в песне аккорды можно найти в разделе Как брать аккорды. Аккорды для шестиструнной гитары. Другие песни можно найти на нашем сайте, воспользовавшись алфавитным указателем вверху страницы.


 
Ошибка в тексте? Выделите ошибку и нажмите Ctrl+Enter