-------------------------------------------------------------------------------
			     G major and minor scales
-------------------------------------------------------------------------------

Tabbed By : Zero is great man
Tuning:EADG

G major:
G|-----------------|
D|-----------2-4-5-|
A|-----2-3-5-------|
E|-3-5-------------|

G minor:
G|-----------------|
D|-------------3-5-|
A|-------3-5-6-----|
E|-3-5-6-----------|

| /  slide up
|   slide down
| h  hammer-on
| p  pull-off
| ~  vibrato
| +  harmonic
| x  Mute note

===============================================================================


Текст, аккорды и табулатура для песни "G Major - G Minor", исполняет "Misc Scales".
Используемые в песне аккорды можно найти в разделе Как брать аккорды. Аккорды для шестиструнной гитары. Другие песни можно найти на нашем сайте, воспользовавшись алфавитным указателем вверху страницы.


 
Ошибка в тексте? Выделите ошибку и нажмите Ctrl+Enter