Irish National Anthem
                                    Guitar Tab
                                   |||||||||||

Not finished properly but it sounds good
(Distortion sounds niiiice when playing this ;o) )

Sнnnе Fianna Fбil…Атб faoi gheall ag Йirinn…Вuноn dбr slua…
That toinn a тнбnig chugainn

E   ----------------------------------------------------------------------
B   ----------------------------------------------------------------------
G   7-9-11-7-2---2 4---4-0-4-2-4-2---7-6-4---7-9-10-12-10-5-7- -----------
D   ----------------------------------------------------------------------
A   ----------------------------------------------------------------------
E   ----------------------------------------------------------------------

Faoi mнуid bheith saor…Sеаnтнr бr sinsear feasta
E   ----------------------------------------------------------------------
B   ----------------------------------------------------------------------
G   7-9-11-7-2---2 4---4-0-4-2-4-2---------------------------------------- 
D   ----------------------------------------------------------------------
A   ----------------------------------------------------------------------
E   ----------------------------------------------------------------------

Nн fнбgfаr faoin тноrбn nб faoin тrбil…Anocht a тнйаm sa bhearna baoil
E   ----------------------------------------------------------------------
B   ----------------------------------------------------------------------
G   4-6-6--6 6 6-4-2-2- -2-0- - -0-- --1-2-2-4-2---UNFINISHED-------------
D  --------------------------4-- --2--------------------------------------
A  -----------------------------------------------------------------------
E  -----------------------------------------------------------------------

T2K2 (C) 2003


Текст, аккорды и табулатура для песни "Irish National Anthem", исполняет "Misc Irish".
Используемые в песне аккорды можно найти в разделе Как брать аккорды. Аккорды для шестиструнной гитары. Другие песни можно найти на нашем сайте, воспользовавшись алфавитным указателем вверху страницы.


 
Ошибка в тексте? Выделите ошибку и нажмите Ctrl+Enter