Legend Of Zelda - Link To The Past
created By brad choquette
e-mail : [email protected] TOOK ME FOREVER TO MAKE, YOU BETTER APPRECIATE IT!!!!!!!


it seems inpossible, but you can do it, just keep practicing                                 Gtr I
|-6-----6--6-6-6--6-|-6--4-6--(6)--6--6-6-6-6--|
|-6-----6-11-6-6--6-|-6--6-6--(6)--6-11-6-6-6--|
|---------10--------|----------------10--------|
|-------------------|--------------------------|
|-------------------|--------------------------|
|-------------------|--------------------------|


|-6--4--6--(6)---6-6-6-6-6--|-6---------------------------|
|-6--6--6--(6)---6-6-6-6-6--|-6--6-6-6--6-6-6--6-6-6--6---|
|---------------10----------|----3-3-4--4-4-5--5-5-6--6---|
|---------------------------|-----------------------------|
|---------------------------|-----------------------------|
|---------------------------|-----------------------------|


|-6-----------------8-10-11-|-13-----13--13-14-16--|-18-----18--18-16-14---|
|-------------11-11---------|------------------13--|---------------13-11---|
|-7--10--(10)--7--7-8-10-12-|-13-----13--13-15-----|-18-----18--18---------|
|-----8---(8)---------------|----------------------|-----------------------|
|---------------------------|----------------------|-----------------------|
|---------------------------|----------------------|-----------------------|


|-16--14--13----13--|-11--11-13-14----13--11--|-9--9-11-13----11--9---|
|-----11------------|-------------------------|-6--6--------------6---|
|-17------13----13--|-11--11-13-15----13--11--|------11-13----11------|
|-------------------|-------------------------|-----------------------|
|-------------------|-------------------------|-----------------------|
|-------------------|-------------------------|-----------------------|


|-8--8-10-12----15--|-13--------------------------|-6-----------------8-10-11--|
|-5--5----------11--|-10--6-6-6--6-6-6--6-6-6--6--|-------------11-11----------|
|------10-12--------|-----------------------------|-7--10--(10)--7--7-8-10-12--|
|-------------------|-----7-7-7--7-7-7--7-7-7--7--|-----8---(8)----------------|
|-------------------|-----------------------------|----------------------------|
|-------------------|-----------------------------|----------------------------|


|-13-----13--13-14-16--|-18------21--|-20--17----13--|-14----(14)--18---|
|------------------13--|---------17--|-16------------|------------------|
|-13-----13--13-15-----|-18----------|-----17----14--|-15----(15)--18---|
|----------------------|-------------|---------------|------------------|
|----------------------|-------------|---------------|------------------|
|----------------------|-------------|---------------|------------------|


|-17--13----13--|-14----(14)--18--|-17--13--------|-------------|
|---------------|-----------------|-----------15--|-16------19--|
|-17--14----14--|-15----(15)--18--|-17--14--------|---------16--|
|---------------|-----------------|-----------15--|-16----------|
|---------------|-----------------|---------------|-------------|
|---------------|-----------------|---------------|-------------|


|-----9----6--|-8--8----12----15--|-13--1-1-1--1-1-1--1-1-1--1---|
|-18--6-------|-5--5-15-----------|-10---------------------------|
|-15-------6--|---------12----15--|-----2-2-2--2-2-2--2-2-2--2---|
|-------------|------15-----------|------------------------------|
|-------------|-------------------|------------------------------|
|-------------|-------------------|------------------------------|


|-----1--(1)-------8-10-11-|-13-----13--13-14-16--|-18-----18--18-16-14---|
|-11---------11-11---------|------------------13--|---------------13-11---|
|-----3--(3)-------8-10-12-|-13-----13--13-15-----|-18-----18--18---------|
|-12---------12-12---------|----------------------|-----------------------|
|--------------------------|----------------------|-----------------------|
|--------------------------|----------------------|-----------------------|


|-16--14--13----13--|-11--11-13-14----13--11--|-9--9-11-13----11--9---|
|-----11------------|-------------------------|-6--6--------------6---|
|-17------13----13--|-11--11-13-15----13--11--|------11-13----11------|
|-------------------|-------------------------|-----------------------|
|-------------------|-------------------------|-----------------------|
|-------------------|-------------------------|-----------------------|


|-8--8-10-12----15--|-13--------------------------|-6-----------------8-10-11--|
|-5--5----------11--|-10--6-6-6--6-6-6--6-6-6--6--|-------------11-11----------|
|------10-12--------|-----------------------------|-7--10--(10)--7--7-8-10-12--|
|-------------------|-----7-7-7--7-7-7--7-7-7--7--|-----8---(8)----------------|
|-------------------|-----------------------------|----------------------------|
|-------------------|-----------------------------|----------------------------|


|-13-----13--13-14-16--|-18------21--|-20--17----13--|-14----(14)--18---|
|------------------13--|---------17--|-16------------|------------------|
|-13-----13--13-15-----|-18----------|-----17----14--|-15----(15)--18---|
|----------------------|-------------|---------------|------------------|
|----------------------|-------------|---------------|------------------|
|----------------------|-------------|---------------|------------------|


|-17--13----13--|-14----(14)--18--|-17--13--------|-------------|
|---------------|-----------------|-----------15--|-16------19--|
|-17--14----14--|-15----(15)--18--|-17--14--------|---------16--|
|---------------|-----------------|-----------15--|-16----------|
|---------------|-----------------|---------------|-------------|
|---------------|-----------------|---------------|-------------|


|-----9----6--|-8--8----12----15--|-13--1-1-1--1-1-1--1-1-1--1---|
|-18--6-------|-5--5-15-----------|-10---------------------------|
|-15-------6--|---------12----15--|-----2-2-2--2-2-2--2-2-2--2---|
|-------------|------15-----------|------------------------------|
|-------------|-------------------|------------------------------|
|-------------|-------------------|------------------------------|


|-----1--(1)-------8-10-11-|-13-----13--13-14-16--|-18-----18--18-16-14---|
|-11---------11-11---------|------------------13--|---------------13-11---|
|-----3--(3)-------8-10-12-|-13-----13--13-15-----|-18-----18--18---------|
|-12---------12-12---------|----------------------|-----------------------|
|--------------------------|----------------------|-----------------------|
|--------------------------|----------------------|-----------------------|


|-16--14--13----13--|-11--11-13-14----13--11--|-9--9-11-13----11--9---|
|-----11------------|-------------------------|-6--6--------------6---|
|-17------13----13--|-11--11-13-15----13--11--|------11-13----11------|
|-------------------|-------------------------|-----------------------|
|-------------------|-------------------------|-----------------------|
|-------------------|-------------------------|-----------------------|


|-8--8-10-12----15--|-13--------------------------|-6-----------------8-10-11--|
|-5--5----------11--|-10--6-6-6--6-6-6--6-6-6--6--|-------------11-11----------|
|------10-12--------|-----------------------------|-7--10--(10)--7--7-8-10-12--|
|-------------------|-----7-7-7--7-7-7--7-7-7--7--|-----8---(8)----------------|
|-------------------|-----------------------------|----------------------------|
|-------------------|-----------------------------|----------------------------|


|-13-----13--13-14-16--|-18------21--|-20--17----13--|-14----(14)--18---|
|------------------13--|---------17--|-16------------|------------------|
|-13-----13--13-15-----|-18----------|-----17----14--|-15----(15)--18---|
|----------------------|-------------|---------------|------------------|
|----------------------|-------------|---------------|------------------|
|----------------------|-------------|---------------|------------------|


|-17--13----13--|-14----(14)--18--|-17--13--------|-------------|
|---------------|-----------------|-----------15--|-16------19--|
|-17--14----14--|-15----(15)--18--|-17--14--------|---------16--|
|---------------|-----------------|-----------15--|-16----------|
|---------------|-----------------|---------------|-------------|
|---------------|-----------------|---------------|-------------|


|-----9----6--|-8--8----12----15--|-13--1-1-1--1-1-1--1-1-1--1---|
|-18--6-------|-5--5-15-----------|-10---------------------------|
|-15-------6--|---------12----15--|-----2-2-2--2-2-2--2-2-2--2---|
|-------------|------15-----------|------------------------------|
|-------------|-------------------|------------------------------|
|-------------|-------------------|------------------------------|


Текст, аккорды и табулатура для песни "Zelda Link To The Past", исполняет "Misc Computer Games".
Используемые в песне аккорды можно найти в разделе Как брать аккорды. Аккорды для шестиструнной гитары. Другие песни можно найти на нашем сайте, воспользовавшись алфавитным указателем вверху страницы.


 
Ошибка в тексте? Выделите ошибку и нажмите Ctrl+Enter