Nintendo - Zelda's Lullaby
Submitted By: DJ Mastabata G
EMail: [email protected]


E|--------------------6-4-------------------------------6-4-
B|----4------4------4-----4----------4---------4------4-----
G|--5---3--5---3--5---------6-5-3--5---3-0-3-5---3--5-------
D|-------------------------------------||
A|-------------------------------------||
E|-------------------------------------||


E|--11--11-9-8-9-8-----7-5-4-5-4------11-9-8-9-8----11--16||
B|-----------------9-------------4-5--------------9-------||
G|--------------------------------------------------------||
D|--------------------------------------------------------||
A|--------------------------------------------------------||
E|--------------------------------------------------------||
===========Nintendo - Zelda's Lullaby
Submitted By: DJ Mastabata G
EMail: [email protected]


Tuning: Standard (E A D G B E)

really easy song, only use top 3 strings (G, B, E)E|--------------------6-4-------------------------------6-4-
B|----4------4------4-----4----------4---------4------4-----
G|--5---3--5---3--5---------6-5-3--5---3-0-3-5---3--5-------
D|-------------------------------------||
A|-------------------------------------||
E|-------------------------------------||


E|--11--11-9-8-9-8-----7-5-4-5-4------11-9-8-9-8----11--16||
B|-----------------9-------------4-5--------------9-------||
G|--------------------------------------------------------||
D|--------------------------------------------------------||
A|--------------------------------------------------------||
E|--------------------------------------------------------||
===========          This is from the Nintendo Game
          The legend of Zelda
          ocarina of time
          
          
          Zelda's Lullaby
          
          E|-7--10-------7--10-----7---10---17---15—10-|
          B|------10----------10-----------------------|
          G|-------------------------------------------|
          D|-------------------------------------------|
          A|-------------------------------------------|
          E|-------------------------------------------|
          
          mookie
          [email protected]


Текст, аккорды и табулатура для песни "Zelda 64 Zeldas Lullaby", исполняет "Misc Computer Games".
Используемые в песне аккорды можно найти в разделе Как брать аккорды. Аккорды для шестиструнной гитары. Другие песни можно найти на нашем сайте, воспользовавшись алфавитным указателем вверху страницы.


 
Ошибка в тексте? Выделите ошибку и нажмите Ctrl+Enter